  0
SECTION
  2
BLOCKS
  0
ENDSEC
  0
SECTION
  2
ENTITIES
  0
LINE
  8
0
 10
-94.3215
 20
1.69487
 11
-94.2841
 21
0.342456
  0
LINE
  8
0
 10
-94.2841
 20
0.342456
 11
-94.0141
 21
-0.902783
  0
LINE
  8
0
 10
-94.0141
 20
-0.902783
 11
-93.5141
 21
-2.02886
  0
LINE
  8
0
 10
-93.5141
 20
-2.02886
 11
-92.7889
 21
-3.02492
  0
LINE
  8
0
 10
-92.7889
 20
-3.02492
 11
-91.8455
 21
-3.88137
  0
LINE
  8
0
 10
-91.8455
 20
-3.88137
 11
-90.6929
 21
-4.58997
  0
LINE
  8
0
 10
-90.6929
 20
-4.58997
 11
-89.3424
 21
-5.1439
  0
LINE
  8
0
 10
-89.3424
 20
-5.1439
 11
-87.8069
 21
-5.53781
  0
LINE
  8
0
 10
-87.8069
 20
-5.53781
 11
-86.1011
 21
-5.76792
  0
LINE
  8
0
 10
-86.1011
 20
-5.76792
 11
-84.2415
 21
-5.83201
  0
LINE
  8
0
 10
-84.2415
 20
-5.83201
 11
-82.246
 21
-5.72945
  0
LINE
  8
0
 10
-82.246
 20
-5.72945
 11
-77.9254
 21
-5.02998
  0
LINE
  8
0
 10
-77.9254
 20
-5.02998
 11
-73.3053
 21
-3.69637
  0
LINE
  8
0
 10
-73.3053
 20
-3.69637
 11
-68.5632
 21
-1.77989
  0
LINE
  8
0
 10
-68.5632
 20
-1.77989
 11
-63.8814
 21
0.645825
  0
LINE
  8
0
 10
-63.8814
 20
0.645825
 11
-59.0004
 21
3.03524
  0
LINE
  8
0
 10
-59.0004
 20
3.03524
 11
-53.8394
 21
4.73718
  0
LINE
  8
0
 10
-53.8394
 20
4.73718
 11
-48.4946
 21
5.71988
  0
LINE
  8
0
 10
-48.4946
 20
5.71988
 11
-43.0657
 21
5.965
  0
LINE
  8
0
 10
-43.0657
 20
5.965
 11
-37.654
 21
5.46797
  0
LINE
  8
0
 10
-37.654
 20
5.46797
 11
-32.3606
 21
4.23807
  0
LINE
  8
0
 10
-32.3606
 20
4.23807
 11
-27.2842
 21
2.29823
  0
LINE
  8
0
 10
-27.2842
 20
2.29823
 11
-22.5195
 21
-0.315326
  0
LINE
  8
0
 10
-22.5195
 20
-0.315326
 11
-18.1554
 21
-3.55385
  0
LINE
  8
0
 10
-18.1554
 20
-3.55385
 11
-12.1554
 21
-13.9461
  0
LINE
  8
0
 10
-12.1554
 20
-13.9461
 11
-11.5328
 21
-19.3448
  0
LINE
  8
0
 10
-11.5328
 20
-19.3448
 11
-11.6518
 21
-24.7779
  0
LINE
  8
0
 10
-11.6518
 20
-24.7779
 11
-12.51
 21
-30.1441
  0
LINE
  8
0
 10
-12.51
 20
-30.1441
 11
-14.0916
 21
-35.3433
  0
LINE
  8
0
 10
-14.0916
 20
-35.3433
 11
-16.367
 21
-40.2785
  0
LINE
  8
0
 10
-16.367
 20
-40.2785
 11
-19.2937
 21
-44.8575
  0
LINE
  8
0
 10
-19.2937
 20
-44.8575
 11
-22.8172
 21
-48.9949
  0
LINE
  8
0
 10
-22.8172
 20
-48.9949
 11
-26.8716
 21
-52.6135
  0
LINE
  8
0
 10
-26.8716
 20
-52.6135
 11
-31.3814
 21
-55.6458
  0
LINE
  8
0
 10
-31.3814
 20
-55.6458
 11
-35.823
 21
-58.4875
  0
LINE
  8
0
 10
-35.823
 20
-58.4875
 11
-39.8538
 21
-61.6361
  0
LINE
  8
0
 10
-39.8538
 20
-61.6361
 11
-43.3188
 21
-64.9704
  0
LINE
  8
0
 10
-43.3188
 20
-64.9704
 11
-46.0849
 21
-68.3624
  0
LINE
  8
0
 10
-46.0849
 20
-68.3624
 11
-47.1714
 21
-70.0393
  0
LINE
  8
0
 10
-47.1714
 20
-70.0393
 11
-48.0457
 21
-71.6818
  0
LINE
  8
0
 10
-48.0457
 20
-71.6818
 11
-48.6993
 21
-73.2741
  0
LINE
  8
0
 10
-48.6993
 20
-73.2741
 11
-49.1259
 21
-74.8008
  0
LINE
  8
0
 10
-49.1259
 20
-74.8008
 11
-49.3215
 21
-76.2474
  0
LINE
  8
0
 10
-49.3215
 20
-76.2474
 11
-49.2841
 21
-77.5998
  0
LINE
  8
0
 10
-49.2841
 20
-77.5998
 11
-49.0141
 21
-78.8451
  0
LINE
  8
0
 10
-49.0141
 20
-78.8451
 11
-48.5141
 21
-79.9711
  0
LINE
  8
0
 10
-48.5141
 20
-79.9711
 11
-47.7889
 21
-80.9672
  0
LINE
  8
0
 10
-47.7889
 20
-80.9672
 11
-46.8455
 21
-81.8237
  0
LINE
  8
0
 10
-46.8455
 20
-81.8237
 11
-45.6929
 21
-82.5323
  0
LINE
  8
0
 10
-45.6929
 20
-82.5323
 11
-44.3424
 21
-83.0862
  0
LINE
  8
0
 10
-44.3424
 20
-83.0862
 11
-42.8069
 21
-83.4801
  0
LINE
  8
0
 10
-42.8069
 20
-83.4801
 11
-41.1011
 21
-83.7102
  0
LINE
  8
0
 10
-41.1011
 20
-83.7102
 11
-39.2415
 21
-83.7743
  0
LINE
  8
0
 10
-39.2415
 20
-83.7743
 11
-37.246
 21
-83.6717
  0
LINE
  8
0
 10
-37.246
 20
-83.6717
 11
-32.9254
 21
-82.9723
  0
LINE
  8
0
 10
-32.9254
 20
-82.9723
 11
-28.3053
 21
-81.6387
  0
LINE
  8
0
 10
-28.3053
 20
-81.6387
 11
-23.5632
 21
-79.7222
  0
LINE
  8
0
 10
-23.5632
 20
-79.7222
 11
-18.8814
 21
-77.2965
  0
LINE
  8
0
 10
-18.8814
 20
-77.2965
 11
-13.6541
 21
-75.4948
  0
LINE
  8
0
 10
-13.6541
 20
-75.4948
 11
-8.25982
 21
-74.2813
  0
LINE
  8
0
 10
-8.25982
 20
-74.2813
 11
-2.76454
 21
-73.6708
  0
LINE
  8
0
 10
-2.76454
 20
-73.6708
 11
2.76454
 21
-73.6708
  0
LINE
  8
0
 10
2.76454
 20
-73.6708
 11
8.25982
 21
-74.2813
  0
LINE
  8
0
 10
8.25982
 20
-74.2813
 11
13.6541
 21
-75.4948
  0
LINE
  8
0
 10
13.6541
 20
-75.4948
 11
18.8814
 21
-77.2965
  0
LINE
  8
0
 10
18.8814
 20
-77.2965
 11
23.5632
 21
-79.7222
  0
LINE
  8
0
 10
23.5632
 20
-79.7222
 11
28.3053
 21
-81.6387
  0
LINE
  8
0
 10
28.3053
 20
-81.6387
 11
32.9254
 21
-82.9723
  0
LINE
  8
0
 10
32.9254
 20
-82.9723
 11
37.246
 21
-83.6717
  0
LINE
  8
0
 10
37.246
 20
-83.6717
 11
39.2415
 21
-83.7743
  0
LINE
  8
0
 10
39.2415
 20
-83.7743
 11
41.1011
 21
-83.7102
  0
LINE
  8
0
 10
41.1011
 20
-83.7102
 11
42.8069
 21
-83.4801
  0
LINE
  8
0
 10
42.8069
 20
-83.4801
 11
44.3424
 21
-83.0862
  0
LINE
  8
0
 10
44.3424
 20
-83.0862
 11
45.6929
 21
-82.5323
  0
LINE
  8
0
 10
45.6929
 20
-82.5323
 11
46.8455
 21
-81.8237
  0
LINE
  8
0
 10
46.8455
 20
-81.8237
 11
47.7889
 21
-80.9672
  0
LINE
  8
0
 10
47.7889
 20
-80.9672
 11
48.5141
 21
-79.9711
  0
LINE
  8
0
 10
48.5141
 20
-79.9711
 11
49.0141
 21
-78.8451
  0
LINE
  8
0
 10
49.0141
 20
-78.8451
 11
49.2841
 21
-77.5998
  0
LINE
  8
0
 10
49.2841
 20
-77.5998
 11
49.3215
 21
-76.2474
  0
LINE
  8
0
 10
49.3215
 20
-76.2474
 11
49.1259
 21
-74.8008
  0
LINE
  8
0
 10
49.1259
 20
-74.8008
 11
48.6993
 21
-73.2741
  0
LINE
  8
0
 10
48.6993
 20
-73.2741
 11
48.0457
 21
-71.6818
  0
LINE
  8
0
 10
48.0457
 20
-71.6818
 11
47.1714
 21
-70.0393
  0
LINE
  8
0
 10
47.1714
 20
-70.0393
 11
46.0849
 21
-68.3624
  0
LINE
  8
0
 10
46.0849
 20
-68.3624
 11
43.3188
 21
-64.9704
  0
LINE
  8
0
 10
43.3188
 20
-64.9704
 11
39.8538
 21
-61.6361
  0
LINE
  8
0
 10
39.8538
 20
-61.6361
 11
35.823
 21
-58.4875
  0
LINE
  8
0
 10
35.823
 20
-58.4875
 11
31.3814
 21
-55.6458
  0
LINE
  8
0
 10
31.3814
 20
-55.6458
 11
26.8716
 21
-52.6135
  0
LINE
  8
0
 10
26.8716
 20
-52.6135
 11
22.8172
 21
-48.9949
  0
LINE
  8
0
 10
22.8172
 20
-48.9949
 11
19.2937
 21
-44.8575
  0
LINE
  8
0
 10
19.2937
 20
-44.8575
 11
16.367
 21
-40.2785
  0
LINE
  8
0
 10
16.367
 20
-40.2785
 11
14.0916
 21
-35.3433
  0
LINE
  8
0
 10
14.0916
 20
-35.3433
 11
12.51
 21
-30.1441
  0
LINE
  8
0
 10
12.51
 20
-30.1441
 11
11.6518
 21
-24.7779
  0
LINE
  8
0
 10
11.6518
 20
-24.7779
 11
11.5328
 21
-19.3448
  0
LINE
  8
0
 10
11.5328
 20
-19.3448
 11
12.1554
 21
-13.9461
  0
LINE
  8
0
 10
12.1554
 20
-13.9461
 11
18.1554
 21
-3.55385
  0
LINE
  8
0
 10
18.1554
 20
-3.55385
 11
22.5195
 21
-0.315326
  0
LINE
  8
0
 10
22.5195
 20
-0.315326
 11
27.2842
 21
2.29823
  0
LINE
  8
0
 10
27.2842
 20
2.29823
 11
32.3606
 21
4.23807
  0
LINE
  8
0
 10
32.3606
 20
4.23807
 11
37.654
 21
5.46797
  0
LINE
  8
0
 10
37.654
 20
5.46797
 11
43.0657
 21
5.965
  0
LINE
  8
0
 10
43.0657
 20
5.965
 11
48.4946
 21
5.71988
  0
LINE
  8
0
 10
48.4946
 20
5.71988
 11
53.8394
 21
4.73718
  0
LINE
  8
0
 10
53.8394
 20
4.73718
 11
59.0004
 21
3.03524
  0
LINE
  8
0
 10
59.0004
 20
3.03524
 11
63.8814
 21
0.645825
  0
LINE
  8
0
 10
63.8814
 20
0.645825
 11
68.5632
 21
-1.77989
  0
LINE
  8
0
 10
68.5632
 20
-1.77989
 11
73.3053
 21
-3.69637
  0
LINE
  8
0
 10
73.3053
 20
-3.69637
 11
77.9254
 21
-5.02998
  0
LINE
  8
0
 10
77.9254
 20
-5.02998
 11
82.246
 21
-5.72945
  0
LINE
  8
0
 10
82.246
 20
-5.72945
 11
84.2415
 21
-5.83201
  0
LINE
  8
0
 10
84.2415
 20
-5.83201
 11
86.1011
 21
-5.76792
  0
LINE
  8
0
 10
86.1011
 20
-5.76792
 11
87.8069
 21
-5.53781
  0
LINE
  8
0
 10
87.8069
 20
-5.53781
 11
89.3424
 21
-5.1439
  0
LINE
  8
0
 10
89.3424
 20
-5.1439
 11
90.6929
 21
-4.58997
  0
LINE
  8
0
 10
90.6929
 20
-4.58997
 11
91.8455
 21
-3.88137
  0
LINE
  8
0
 10
91.8455
 20
-3.88137
 11
92.7889
 21
-3.02492
  0
LINE
  8
0
 10
92.7889
 20
-3.02492
 11
93.5141
 21
-2.02886
  0
LINE
  8
0
 10
93.5141
 20
-2.02886
 11
94.0141
 21
-0.902783
  0
LINE
  8
0
 10
94.0141
 20
-0.902783
 11
94.2841
 21
0.342456
  0
LINE
  8
0
 10
94.2841
 20
0.342456
 11
94.3215
 21
1.69487
  0
LINE
  8
0
 10
94.3215
 20
1.69487
 11
94.1259
 21
3.14144
  0
LINE
  8
0
 10
94.1259
 20
3.14144
 11
93.6993
 21
4.66822
  0
LINE
  8
0
 10
93.6993
 20
4.66822
 11
93.0457
 21
6.26053
  0
LINE
  8
0
 10
93.0457
 20
6.26053
 11
92.1714
 21
7.90301
  0
LINE
  8
0
 10
92.1714
 20
7.90301
 11
91.0849
 21
9.57986
  0
LINE
  8
0
 10
91.0849
 20
9.57986
 11
88.3188
 21
12.9719
  0
LINE
  8
0
 10
88.3188
 20
12.9719
 11
84.8538
 21
16.3062
  0
LINE
  8
0
 10
84.8538
 20
16.3062
 11
80.823
 21
19.4547
  0
LINE
  8
0
 10
80.823
 20
19.4547
 11
76.3814
 21
22.2965
  0
LINE
  8
0
 10
76.3814
 20
22.2965
 11
72.2074
 21
25.9226
  0
LINE
  8
0
 10
72.2074
 20
25.9226
 11
68.4594
 21
29.9874
  0
LINE
  8
0
 10
68.4594
 20
29.9874
 11
65.1831
 21
34.4412
  0
LINE
  8
0
 10
65.1831
 20
34.4412
 11
62.4185
 21
39.2296
  0
LINE
  8
0
 10
62.4185
 20
39.2296
 11
60.1996
 21
44.2939
  0
LINE
  8
0
 10
60.1996
 20
44.2939
 11
58.5534
 21
49.5722
  0
LINE
  8
0
 10
58.5534
 20
49.5722
 11
57.5
 21
55
  0
LINE
  8
0
 10
57.5
 20
55
 11
57.2598
 21
60.2674
  0
LINE
  8
0
 10
57.2598
 20
60.2674
 11
56.5485
 21
65.3324
  0
LINE
  8
0
 10
56.5485
 20
65.3324
 11
55.3934
 21
70.0004
  0
LINE
  8
0
 10
55.3934
 20
70.0004
 11
53.8388
 21
74.0919
  0
LINE
  8
0
 10
53.8388
 20
74.0919
 11
52.9299
 21
75.8713
  0
LINE
  8
0
 10
52.9299
 20
75.8713
 11
51.9446
 21
77.4497
  0
LINE
  8
0
 10
51.9446
 20
77.4497
 11
50.8925
 21
78.8119
  0
LINE
  8
0
 10
50.8925
 20
78.8119
 11
49.7835
 21
79.9447
  0
LINE
  8
0
 10
49.7835
 20
79.9447
 11
48.6286
 21
80.8374
  0
LINE
  8
0
 10
48.6286
 20
80.8374
 11
47.4386
 21
81.4812
  0
LINE
  8
0
 10
47.4386
 20
81.4812
 11
46.2252
 21
81.87
  0
LINE
  8
0
 10
46.2252
 20
81.87
 11
45
 21
82
  0
LINE
  8
0
 10
45
 20
82
 11
43.7748
 21
81.87
  0
LINE
  8
0
 10
43.7748
 20
81.87
 11
42.5614
 21
81.4812
  0
LINE
  8
0
 10
42.5614
 20
81.4812
 11
41.3714
 21
80.8374
  0
LINE
  8
0
 10
41.3714
 20
80.8374
 11
40.2165
 21
79.9447
  0
LINE
  8
0
 10
40.2165
 20
79.9447
 11
39.1075
 21
78.8119
  0
LINE
  8
0
 10
39.1075
 20
78.8119
 11
38.0554
 21
77.4497
  0
LINE
  8
0
 10
38.0554
 20
77.4497
 11
37.0701
 21
75.8713
  0
LINE
  8
0
 10
37.0701
 20
75.8713
 11
36.1612
 21
74.0919
  0
LINE
  8
0
 10
36.1612
 20
74.0919
 11
34.6066
 21
70.0004
  0
LINE
  8
0
 10
34.6066
 20
70.0004
 11
33.4515
 21
65.3324
  0
LINE
  8
0
 10
33.4515
 20
65.3324
 11
32.7402
 21
60.2674
  0
LINE
  8
0
 10
32.7402
 20
60.2674
 11
32.5
 21
55
  0
LINE
  8
0
 10
32.5
 20
55
 11
32.1288
 21
49.5783
  0
LINE
  8
0
 10
32.1288
 20
49.5783
 11
31.0222
 21
44.2577
  0
LINE
  8
0
 10
31.0222
 20
44.2577
 11
29.2008
 21
39.1376
  0
LINE
  8
0
 10
29.2008
 20
39.1376
 11
26.6987
 21
34.3135
  0
LINE
  8
0
 10
26.6987
 20
34.3135
 11
23.5624
 21
29.8754
  0
LINE
  8
0
 10
23.5624
 20
29.8754
 11
19.8506
 21
25.9061
  0
LINE
  8
0
 10
19.8506
 20
25.9061
 11
15.6324
 21
22.4797
  0
LINE
  8
0
 10
15.6324
 20
22.4797
 11
10.9867
 21
19.6601
  0
LINE
  8
0
 10
10.9867
 20
19.6601
 11
6
 21
17.5
  0
LINE
  8
0
 10
6
 20
17.5
 11
-6
 21
17.5
  0
LINE
  8
0
 10
-6
 20
17.5
 11
-10.9867
 21
19.6601
  0
LINE
  8
0
 10
-10.9867
 20
19.6601
 11
-15.6324
 21
22.4797
  0
LINE
  8
0
 10
-15.6324
 20
22.4797
 11
-19.8506
 21
25.9061
  0
LINE
  8
0
 10
-19.8506
 20
25.9061
 11
-23.5624
 21
29.8754
  0
LINE
  8
0
 10
-23.5624
 20
29.8754
 11
-26.6987
 21
34.3135
  0
LINE
  8
0
 10
-26.6987
 20
34.3135
 11
-29.2008
 21
39.1376
  0
LINE
  8
0
 10
-29.2008
 20
39.1376
 11
-31.0222
 21
44.2577
  0
LINE
  8
0
 10
-31.0222
 20
44.2577
 11
-32.1288
 21
49.5783
  0
LINE
  8
0
 10
-32.1288
 20
49.5783
 11
-32.5
 21
55
  0
LINE
  8
0
 10
-32.5
 20
55
 11
-32.7402
 21
60.2674
  0
LINE
  8
0
 10
-32.7402
 20
60.2674
 11
-33.4515
 21
65.3324
  0
LINE
  8
0
 10
-33.4515
 20
65.3324
 11
-34.6066
 21
70.0004
  0
LINE
  8
0
 10
-34.6066
 20
70.0004
 11
-36.1612
 21
74.0919
  0
LINE
  8
0
 10
-36.1612
 20
74.0919
 11
-37.0701
 21
75.8713
  0
LINE
  8
0
 10
-37.0701
 20
75.8713
 11
-38.0554
 21
77.4497
  0
LINE
  8
0
 10
-38.0554
 20
77.4497
 11
-39.1075
 21
78.8119
  0
LINE
  8
0
 10
-39.1075
 20
78.8119
 11
-40.2165
 21
79.9447
  0
LINE
  8
0
 10
-40.2165
 20
79.9447
 11
-41.3714
 21
80.8374
  0
LINE
  8
0
 10
-41.3714
 20
80.8374
 11
-42.5614
 21
81.4812
  0
LINE
  8
0
 10
-42.5614
 20
81.4812
 11
-43.7748
 21
81.87
  0
LINE
  8
0
 10
-43.7748
 20
81.87
 11
-45
 21
82
  0
LINE
  8
0
 10
-45
 20
82
 11
-46.2252
 21
81.87
  0
LINE
  8
0
 10
-46.2252
 20
81.87
 11
-47.4386
 21
81.4812
  0
LINE
  8
0
 10
-47.4386
 20
81.4812
 11
-48.6286
 21
80.8374
  0
LINE
  8
0
 10
-48.6286
 20
80.8374
 11
-49.7835
 21
79.9447
  0
LINE
  8
0
 10
-49.7835
 20
79.9447
 11
-50.8925
 21
78.8119
  0
LINE
  8
0
 10
-50.8925
 20
78.8119
 11
-51.9446
 21
77.4497
  0
LINE
  8
0
 10
-51.9446
 20
77.4497
 11
-52.9299
 21
75.8713
  0
LINE
  8
0
 10
-52.9299
 20
75.8713
 11
-53.8388
 21
74.0919
  0
LINE
  8
0
 10
-53.8388
 20
74.0919
 11
-55.3934
 21
70.0004
  0
LINE
  8
0
 10
-55.3934
 20
70.0004
 11
-56.5485
 21
65.3324
  0
LINE
  8
0
 10
-56.5485
 20
65.3324
 11
-57.2598
 21
60.2674
  0
LINE
  8
0
 10
-57.2598
 20
60.2674
 11
-57.5
 21
55
  0
LINE
  8
0
 10
-57.5
 20
55
 11
-58.5534
 21
49.5722
  0
LINE
  8
0
 10
-58.5534
 20
49.5722
 11
-60.1996
 21
44.2939
  0
LINE
  8
0
 10
-60.1996
 20
44.2939
 11
-62.4185
 21
39.2296
  0
LINE
  8
0
 10
-62.4185
 20
39.2296
 11
-65.1831
 21
34.4412
  0
LINE
  8
0
 10
-65.1831
 20
34.4412
 11
-68.4594
 21
29.9874
  0
LINE
  8
0
 10
-68.4594
 20
29.9874
 11
-72.2074
 21
25.9226
  0
LINE
  8
0
 10
-72.2074
 20
25.9226
 11
-76.3814
 21
22.2965
  0
LINE
  8
0
 10
-76.3814
 20
22.2965
 11
-80.823
 21
19.4547
  0
LINE
  8
0
 10
-80.823
 20
19.4547
 11
-84.8538
 21
16.3062
  0
LINE
  8
0
 10
-84.8538
 20
16.3062
 11
-88.3188
 21
12.9719
  0
LINE
  8
0
 10
-88.3188
 20
12.9719
 11
-91.0849
 21
9.57986
  0
LINE
  8
0
 10
-91.0849
 20
9.57986
 11
-92.1714
 21
7.90301
  0
LINE
  8
0
 10
-92.1714
 20
7.90301
 11
-93.0457
 21
6.26053
  0
LINE
  8
0
 10
-93.0457
 20
6.26053
 11
-93.6993
 21
4.66822
  0
LINE
  8
0
 10
-93.6993
 20
4.66822
 11
-94.1259
 21
3.14144
  0
LINE
  8
0
 10
-94.1259
 20
3.14144
 11
-94.3215
 21
1.69487
  0
LINE
  8
0
 10
-89.9519
 20
1.47114
 11
-89.617
 21
2.72114
  0
LINE
  8
0
 10
-89.617
 20
2.72114
 11
-88.7019
 21
3.63621
  0
LINE
  8
0
 10
-88.7019
 20
3.63621
 11
-87.4519
 21
3.97114
  0
LINE
  8
0
 10
-87.4519
 20
3.97114
 11
-86.2019
 21
3.63621
  0
LINE
  8
0
 10
-86.2019
 20
3.63621
 11
-85.2868
 21
2.72114
  0
LINE
  8
0
 10
-85.2868
 20
2.72114
 11
-84.9519
 21
1.47114
  0
LINE
  8
0
 10
-84.9519
 20
1.47114
 11
-85.2868
 21
0.221143
  0
LINE
  8
0
 10
-85.2868
 20
0.221143
 11
-86.2019
 21
-0.69392
  0
LINE
  8
0
 10
-86.2019
 20
-0.69392
 11
-87.4519
 21
-1.02886
  0
LINE
  8
0
 10
-87.4519
 20
-1.02886
 11
-88.7019
 21
-0.69392
  0
LINE
  8
0
 10
-88.7019
 20
-0.69392
 11
-89.617
 21
0.221143
  0
LINE
  8
0
 10
-89.617
 20
0.221143
 11
-89.9519
 21
1.47114
  0
LINE
  8
0
 10
-65.7378
 20
28.1388
 11
-57.2378
 21
42.8612
  0
LINE
  8
0
 10
-57.2378
 20
42.8612
 11
-54.4665
 21
41.2612
  0
LINE
  8
0
 10
-54.4665
 20
41.2612
 11
-62.9665
 21
26.5388
  0
LINE
  8
0
 10
-62.9665
 20
26.5388
 11
-65.7378
 21
28.1388
  0
LINE
  8
0
 10
-55.3109
 20
21.4711
 11
-54.9759
 21
22.7211
  0
LINE
  8
0
 10
-54.9759
 20
22.7211
 11
-54.0609
 21
23.6362
  0
LINE
  8
0
 10
-54.0609
 20
23.6362
 11
-52.8109
 21
23.9711
  0
LINE
  8
0
 10
-52.8109
 20
23.9711
 11
-51.5609
 21
23.6362
  0
LINE
  8
0
 10
-51.5609
 20
23.6362
 11
-50.6458
 21
22.7211
  0
LINE
  8
0
 10
-50.6458
 20
22.7211
 11
-50.3109
 21
21.4711
  0
LINE
  8
0
 10
-50.3109
 20
21.4711
 11
-50.6458
 21
20.2211
  0
LINE
  8
0
 10
-50.6458
 20
20.2211
 11
-51.5609
 21
19.3061
  0
LINE
  8
0
 10
-51.5609
 20
19.3061
 11
-52.8109
 21
18.9711
  0
LINE
  8
0
 10
-52.8109
 20
18.9711
 11
-54.0609
 21
19.3061
  0
LINE
  8
0
 10
-54.0609
 20
19.3061
 11
-54.9759
 21
20.2211
  0
LINE
  8
0
 10
-54.9759
 20
20.2211
 11
-55.3109
 21
21.4711
  0
LINE
  8
0
 10
-47.5
 20
35
 11
-47.1651
 21
36.25
  0
LINE
  8
0
 10
-47.1651
 20
36.25
 11
-46.25
 21
37.1651
  0
LINE
  8
0
 10
-46.25
 20
37.1651
 11
-45
 21
37.5
  0
LINE
  8
0
 10
-45
 20
37.5
 11
-43.75
 21
37.1651
  0
LINE
  8
0
 10
-43.75
 20
37.1651
 11
-42.8349
 21
36.25
  0
LINE
  8
0
 10
-42.8349
 20
36.25
 11
-42.5
 21
35
  0
LINE
  8
0
 10
-42.5
 20
35
 11
-42.8349
 21
33.75
  0
LINE
  8
0
 10
-42.8349
 20
33.75
 11
-43.75
 21
32.8349
  0
LINE
  8
0
 10
-43.75
 20
32.8349
 11
-45
 21
32.5
  0
LINE
  8
0
 10
-45
 20
32.5
 11
-46.25
 21
32.8349
  0
LINE
  8
0
 10
-46.25
 20
32.8349
 11
-47.1651
 21
33.75
  0
LINE
  8
0
 10
-47.1651
 20
33.75
 11
-47.5
 21
35
  0
LINE
  8
0
 10
-47.5
 20
75
 11
-47.1651
 21
76.25
  0
LINE
  8
0
 10
-47.1651
 20
76.25
 11
-46.25
 21
77.1651
  0
LINE
  8
0
 10
-46.25
 20
77.1651
 11
-45
 21
77.5
  0
LINE
  8
0
 10
-45
 20
77.5
 11
-43.75
 21
77.1651
  0
LINE
  8
0
 10
-43.75
 20
77.1651
 11
-42.8349
 21
76.25
  0
LINE
  8
0
 10
-42.8349
 20
76.25
 11
-42.5
 21
75
  0
LINE
  8
0
 10
-42.5
 20
75
 11
-42.8349
 21
73.75
  0
LINE
  8
0
 10
-42.8349
 20
73.75
 11
-43.75
 21
72.8349
  0
LINE
  8
0
 10
-43.75
 20
72.8349
 11
-45
 21
72.5
  0
LINE
  8
0
 10
-45
 20
72.5
 11
-46.25
 21
72.8349
  0
LINE
  8
0
 10
-46.25
 20
72.8349
 11
-47.1651
 21
73.75
  0
LINE
  8
0
 10
-47.1651
 20
73.75
 11
-47.5
 21
75
  0
LINE
  8
0
 10
-44.9519
 20
-76.4711
 11
-44.617
 21
-75.2211
  0
LINE
  8
0
 10
-44.617
 20
-75.2211
 11
-43.7019
 21
-74.3061
  0
LINE
  8
0
 10
-43.7019
 20
-74.3061
 11
-42.4519
 21
-73.9711
  0
LINE
  8
0
 10
-42.4519
 20
-73.9711
 11
-41.2019
 21
-74.3061
  0
LINE
  8
0
 10
-41.2019
 20
-74.3061
 11
-40.2868
 21
-75.2211
  0
LINE
  8
0
 10
-40.2868
 20
-75.2211
 11
-39.9519
 21
-76.4711
  0
LINE
  8
0
 10
-39.9519
 20
-76.4711
 11
-40.2868
 21
-77.7211
  0
LINE
  8
0
 10
-40.2868
 20
-77.7211
 11
-41.2019
 21
-78.6362
  0
LINE
  8
0
 10
-41.2019
 20
-78.6362
 11
-42.4519
 21
-78.9711
  0
LINE
  8
0
 10
-42.4519
 20
-78.9711
 11
-43.7019
 21
-78.6362
  0
LINE
  8
0
 10
-43.7019
 20
-78.6362
 11
-44.617
 21
-77.7211
  0
LINE
  8
0
 10
-44.617
 20
-77.7211
 11
-44.9519
 21
-76.4711
  0
LINE
  8
0
 10
-10.3109
 20
-56.4711
 11
-9.97595
 21
-55.2211
  0
LINE
  8
0
 10
-9.97595
 20
-55.2211
 11
-9.06089
 21
-54.3061
  0
LINE
  8
0
 10
-9.06089
 20
-54.3061
 11
-7.81089
 21
-53.9711
  0
LINE
  8
0
 10
-7.81089
 20
-53.9711
 11
-6.56089
 21
-54.3061
  0
LINE
  8
0
 10
-6.56089
 20
-54.3061
 11
-5.64583
 21
-55.2211
  0
LINE
  8
0
 10
-5.64583
 20
-55.2211
 11
-5.31089
 21
-56.4711
  0
LINE
  8
0
 10
-5.31089
 20
-56.4711
 11
-5.64583
 21
-57.7211
  0
LINE
  8
0
 10
-5.64583
 20
-57.7211
 11
-6.56089
 21
-58.6362
  0
LINE
  8
0
 10
-6.56089
 20
-58.6362
 11
-7.81089
 21
-58.9711
  0
LINE
  8
0
 10
-7.81089
 20
-58.9711
 11
-9.06089
 21
-58.6362
  0
LINE
  8
0
 10
-9.06089
 20
-58.6362
 11
-9.97595
 21
-57.7211
  0
LINE
  8
0
 10
-9.97595
 20
-57.7211
 11
-10.3109
 21
-56.4711
  0
LINE
  8
0
 10
-8.5
 20
-71
 11
-8.5
 21
-67.8
  0
LINE
  8
0
 10
-8.5
 20
-67.8
 11
8.5
 21
-67.8
  0
LINE
  8
0
 10
8.5
 20
-67.8
 11
8.5
 21
-71
  0
LINE
  8
0
 10
8.5
 20
-71
 11
-8.5
 21
-71
  0
LINE
  8
0
 10
-4.25
 20
0
 11
-3.88257
 21
1.72863
  0
LINE
  8
0
 10
-3.88257
 20
1.72863
 11
-2.8438
 21
3.15837
  0
LINE
  8
0
 10
-2.8438
 20
3.15837
 11
-1.31332
 21
4.04199
  0
LINE
  8
0
 10
-1.31332
 20
4.04199
 11
0.444245
 21
4.22672
  0
LINE
  8
0
 10
0.444245
 20
4.22672
 11
2.125
 21
3.68061
  0
LINE
  8
0
 10
2.125
 20
3.68061
 11
3.43832
 21
2.49809
  0
LINE
  8
0
 10
3.43832
 20
2.49809
 11
4.15713
 21
0.883624
  0
LINE
  8
0
 10
4.15713
 20
0.883624
 11
4.15713
 21
-0.883624
  0
LINE
  8
0
 10
4.15713
 20
-0.883624
 11
3.43832
 21
-2.49809
  0
LINE
  8
0
 10
3.43832
 20
-2.49809
 11
2.125
 21
-3.68061
  0
LINE
  8
0
 10
2.125
 20
-3.68061
 11
0.444245
 21
-4.22672
  0
LINE
  8
0
 10
0.444245
 20
-4.22672
 11
-1.31332
 21
-4.04199
  0
LINE
  8
0
 10
-1.31332
 20
-4.04199
 11
-2.8438
 21
-3.15837
  0
LINE
  8
0
 10
-2.8438
 20
-3.15837
 11
-3.88257
 21
-1.72863
  0
LINE
  8
0
 10
-3.88257
 20
-1.72863
 11
-4.25
 21
0
  0
LINE
  8
0
 10
5.31089
 20
-56.4711
 11
5.64583
 21
-55.2211
  0
LINE
  8
0
 10
5.64583
 20
-55.2211
 11
6.56089
 21
-54.3061
  0
LINE
  8
0
 10
6.56089
 20
-54.3061
 11
7.81089
 21
-53.9711
  0
LINE
  8
0
 10
7.81089
 20
-53.9711
 11
9.06089
 21
-54.3061
  0
LINE
  8
0
 10
9.06089
 20
-54.3061
 11
9.97595
 21
-55.2211
  0
LINE
  8
0
 10
9.97595
 20
-55.2211
 11
10.3109
 21
-56.4711
  0
LINE
  8
0
 10
10.3109
 20
-56.4711
 11
9.97595
 21
-57.7211
  0
LINE
  8
0
 10
9.97595
 20
-57.7211
 11
9.06089
 21
-58.6362
  0
LINE
  8
0
 10
9.06089
 20
-58.6362
 11
7.81089
 21
-58.9711
  0
LINE
  8
0
 10
7.81089
 20
-58.9711
 11
6.56089
 21
-58.6362
  0
LINE
  8
0
 10
6.56089
 20
-58.6362
 11
5.64583
 21
-57.7211
  0
LINE
  8
0
 10
5.64583
 20
-57.7211
 11
5.31089
 21
-56.4711
  0
LINE
  8
0
 10
39.9519
 20
-76.4711
 11
40.2868
 21
-75.2211
  0
LINE
  8
0
 10
40.2868
 20
-75.2211
 11
41.2019
 21
-74.3061
  0
LINE
  8
0
 10
41.2019
 20
-74.3061
 11
42.4519
 21
-73.9711
  0
LINE
  8
0
 10
42.4519
 20
-73.9711
 11
43.7019
 21
-74.3061
  0
LINE
  8
0
 10
43.7019
 20
-74.3061
 11
44.617
 21
-75.2211
  0
LINE
  8
0
 10
44.617
 20
-75.2211
 11
44.9519
 21
-76.4711
  0
LINE
  8
0
 10
44.9519
 20
-76.4711
 11
44.617
 21
-77.7211
  0
LINE
  8
0
 10
44.617
 20
-77.7211
 11
43.7019
 21
-78.6362
  0
LINE
  8
0
 10
43.7019
 20
-78.6362
 11
42.4519
 21
-78.9711
  0
LINE
  8
0
 10
42.4519
 20
-78.9711
 11
41.2019
 21
-78.6362
  0
LINE
  8
0
 10
41.2019
 20
-78.6362
 11
40.2868
 21
-77.7211
  0
LINE
  8
0
 10
40.2868
 20
-77.7211
 11
39.9519
 21
-76.4711
  0
LINE
  8
0
 10
42.5
 20
35
 11
42.8349
 21
36.25
  0
LINE
  8
0
 10
42.8349
 20
36.25
 11
43.75
 21
37.1651
  0
LINE
  8
0
 10
43.75
 20
37.1651
 11
45
 21
37.5
  0
LINE
  8
0
 10
45
 20
37.5
 11
46.25
 21
37.1651
  0
LINE
  8
0
 10
46.25
 20
37.1651
 11
47.1651
 21
36.25
  0
LINE
  8
0
 10
47.1651
 20
36.25
 11
47.5
 21
35
  0
LINE
  8
0
 10
47.5
 20
35
 11
47.1651
 21
33.75
  0
LINE
  8
0
 10
47.1651
 20
33.75
 11
46.25
 21
32.8349
  0
LINE
  8
0
 10
46.25
 20
32.8349
 11
45
 21
32.5
  0
LINE
  8
0
 10
45
 20
32.5
 11
43.75
 21
32.8349
  0
LINE
  8
0
 10
43.75
 20
32.8349
 11
42.8349
 21
33.75
  0
LINE
  8
0
 10
42.8349
 20
33.75
 11
42.5
 21
35
  0
LINE
  8
0
 10
42.5
 20
75
 11
42.8349
 21
76.25
  0
LINE
  8
0
 10
42.8349
 20
76.25
 11
43.75
 21
77.1651
  0
LINE
  8
0
 10
43.75
 20
77.1651
 11
45
 21
77.5
  0
LINE
  8
0
 10
45
 20
77.5
 11
46.25
 21
77.1651
  0
LINE
  8
0
 10
46.25
 20
77.1651
 11
47.1651
 21
76.25
  0
LINE
  8
0
 10
47.1651
 20
76.25
 11
47.5
 21
75
  0
LINE
  8
0
 10
47.5
 20
75
 11
47.1651
 21
73.75
  0
LINE
  8
0
 10
47.1651
 20
73.75
 11
46.25
 21
72.8349
  0
LINE
  8
0
 10
46.25
 20
72.8349
 11
45
 21
72.5
  0
LINE
  8
0
 10
45
 20
72.5
 11
43.75
 21
72.8349
  0
LINE
  8
0
 10
43.75
 20
72.8349
 11
42.8349
 21
73.75
  0
LINE
  8
0
 10
42.8349
 20
73.75
 11
42.5
 21
75
  0
LINE
  8
0
 10
50.3109
 20
21.4711
 11
50.6458
 21
22.7211
  0
LINE
  8
0
 10
50.6458
 20
22.7211
 11
51.5609
 21
23.6362
  0
LINE
  8
0
 10
51.5609
 20
23.6362
 11
52.8109
 21
23.9711
  0
LINE
  8
0
 10
52.8109
 20
23.9711
 11
54.0609
 21
23.6362
  0
LINE
  8
0
 10
54.0609
 20
23.6362
 11
54.9759
 21
22.7211
  0
LINE
  8
0
 10
54.9759
 20
22.7211
 11
55.3109
 21
21.4711
  0
LINE
  8
0
 10
55.3109
 20
21.4711
 11
54.9759
 21
20.2211
  0
LINE
  8
0
 10
54.9759
 20
20.2211
 11
54.0609
 21
19.3061
  0
LINE
  8
0
 10
54.0609
 20
19.3061
 11
52.8109
 21
18.9711
  0
LINE
  8
0
 10
52.8109
 20
18.9711
 11
51.5609
 21
19.3061
  0
LINE
  8
0
 10
51.5609
 20
19.3061
 11
50.6458
 21
20.2211
  0
LINE
  8
0
 10
50.6458
 20
20.2211
 11
50.3109
 21
21.4711
  0
LINE
  8
0
 10
54.4665
 20
41.2612
 11
57.2378
 21
42.8612
  0
LINE
  8
0
 10
57.2378
 20
42.8612
 11
65.7378
 21
28.1388
  0
LINE
  8
0
 10
65.7378
 20
28.1388
 11
62.9665
 21
26.5388
  0
LINE
  8
0
 10
62.9665
 20
26.5388
 11
54.4665
 21
41.2612
  0
LINE
  8
0
 10
84.9519
 20
1.47114
 11
85.2868
 21
2.72114
  0
LINE
  8
0
 10
85.2868
 20
2.72114
 11
86.2019
 21
3.63621
  0
LINE
  8
0
 10
86.2019
 20
3.63621
 11
87.4519
 21
3.97114
  0
LINE
  8
0
 10
87.4519
 20
3.97114
 11
88.7019
 21
3.63621
  0
LINE
  8
0
 10
88.7019
 20
3.63621
 11
89.617
 21
2.72114
  0
LINE
  8
0
 10
89.617
 20
2.72114
 11
89.9519
 21
1.47114
  0
LINE
  8
0
 10
89.9519
 20
1.47114
 11
89.617
 21
0.221143
  0
LINE
  8
0
 10
89.617
 20
0.221143
 11
88.7019
 21
-0.69392
  0
LINE
  8
0
 10
88.7019
 20
-0.69392
 11
87.4519
 21
-1.02886
  0
LINE
  8
0
 10
87.4519
 20
-1.02886
 11
86.2019
 21
-0.69392
  0
LINE
  8
0
 10
86.2019
 20
-0.69392
 11
85.2868
 21
0.221143
  0
LINE
  8
0
 10
85.2868
 20
0.221143
 11
84.9519
 21
1.47114
  0
ENDSEC
  0
SECTION
  2
OBJECTS
  0
DICTIONARY
  0
ENDSEC
  0
EOF
