  0
SECTION
  2
BLOCKS
  0
ENDSEC
  0
SECTION
  2
ENTITIES
  0
LINE
  8
0
 10
145.245
 20
-149.994
 11
145.49
 21
-149.976
  0
LINE
  8
0
 10
145.49
 20
-149.976
 11
145.734
 21
-149.946
  0
LINE
  8
0
 10
145.734
 20
-149.946
 11
145.975
 21
-149.904
  0
LINE
  8
0
 10
145.975
 20
-149.904
 11
146.215
 21
-149.85
  0
LINE
  8
0
 10
146.215
 20
-149.85
 11
146.451
 21
-149.785
  0
LINE
  8
0
 10
146.451
 20
-149.785
 11
146.684
 21
-149.708
  0
LINE
  8
0
 10
146.684
 20
-149.708
 11
146.913
 21
-149.619
  0
LINE
  8
0
 10
146.913
 20
-149.619
 11
147.138
 21
-149.52
  0
LINE
  8
0
 10
147.138
 20
-149.52
 11
147.357
 21
-149.41
  0
LINE
  8
0
 10
147.357
 20
-149.41
 11
147.571
 21
-149.289
  0
LINE
  8
0
 10
147.571
 20
-149.289
 11
147.778
 21
-149.157
  0
LINE
  8
0
 10
147.778
 20
-149.157
 11
147.979
 21
-149.016
  0
LINE
  8
0
 10
147.979
 20
-149.016
 11
148.172
 21
-148.865
  0
LINE
  8
0
 10
148.172
 20
-148.865
 11
148.358
 21
-148.705
  0
LINE
  8
0
 10
148.358
 20
-148.705
 11
148.536
 21
-148.536
  0
LINE
  8
0
 10
148.536
 20
-148.536
 11
148.705
 21
-148.358
  0
LINE
  8
0
 10
148.705
 20
-148.358
 11
148.865
 21
-148.172
  0
LINE
  8
0
 10
148.865
 20
-148.172
 11
149.016
 21
-147.979
  0
LINE
  8
0
 10
149.016
 20
-147.979
 11
149.157
 21
-147.778
  0
LINE
  8
0
 10
149.157
 20
-147.778
 11
149.289
 21
-147.571
  0
LINE
  8
0
 10
149.289
 20
-147.571
 11
149.41
 21
-147.357
  0
LINE
  8
0
 10
149.41
 20
-147.357
 11
149.52
 21
-147.138
  0
LINE
  8
0
 10
149.52
 20
-147.138
 11
149.619
 21
-146.913
  0
LINE
  8
0
 10
149.619
 20
-146.913
 11
149.708
 21
-146.684
  0
LINE
  8
0
 10
149.708
 20
-146.684
 11
149.785
 21
-146.451
  0
LINE
  8
0
 10
149.785
 20
-146.451
 11
149.85
 21
-146.215
  0
LINE
  8
0
 10
149.85
 20
-146.215
 11
149.904
 21
-145.975
  0
LINE
  8
0
 10
149.904
 20
-145.975
 11
149.946
 21
-145.734
  0
LINE
  8
0
 10
149.946
 20
-145.734
 11
149.976
 21
-145.49
  0
LINE
  8
0
 10
149.976
 20
-145.49
 11
149.994
 21
-145.245
  0
LINE
  8
0
 10
149.994
 20
-145.245
 11
150
 21
-145
  0
LINE
  8
0
 10
150
 20
-145
 11
150
 21
145
  0
LINE
  8
0
 10
150
 20
145
 11
149.994
 21
145.245
  0
LINE
  8
0
 10
149.994
 20
145.245
 11
149.976
 21
145.49
  0
LINE
  8
0
 10
149.976
 20
145.49
 11
149.946
 21
145.734
  0
LINE
  8
0
 10
149.946
 20
145.734
 11
149.904
 21
145.975
  0
LINE
  8
0
 10
149.904
 20
145.975
 11
149.85
 21
146.215
  0
LINE
  8
0
 10
149.85
 20
146.215
 11
149.785
 21
146.451
  0
LINE
  8
0
 10
149.785
 20
146.451
 11
149.708
 21
146.684
  0
LINE
  8
0
 10
149.708
 20
146.684
 11
149.619
 21
146.913
  0
LINE
  8
0
 10
149.619
 20
146.913
 11
149.52
 21
147.138
  0
LINE
  8
0
 10
149.52
 20
147.138
 11
149.41
 21
147.357
  0
LINE
  8
0
 10
149.41
 20
147.357
 11
149.289
 21
147.571
  0
LINE
  8
0
 10
149.289
 20
147.571
 11
149.157
 21
147.778
  0
LINE
  8
0
 10
149.157
 20
147.778
 11
149.016
 21
147.979
  0
LINE
  8
0
 10
149.016
 20
147.979
 11
148.865
 21
148.172
  0
LINE
  8
0
 10
148.865
 20
148.172
 11
148.705
 21
148.358
  0
LINE
  8
0
 10
148.705
 20
148.358
 11
148.536
 21
148.536
  0
LINE
  8
0
 10
148.536
 20
148.536
 11
148.358
 21
148.705
  0
LINE
  8
0
 10
148.358
 20
148.705
 11
148.172
 21
148.865
  0
LINE
  8
0
 10
148.172
 20
148.865
 11
147.979
 21
149.016
  0
LINE
  8
0
 10
147.979
 20
149.016
 11
147.778
 21
149.157
  0
LINE
  8
0
 10
147.778
 20
149.157
 11
147.571
 21
149.289
  0
LINE
  8
0
 10
147.571
 20
149.289
 11
147.357
 21
149.41
  0
LINE
  8
0
 10
147.357
 20
149.41
 11
147.138
 21
149.52
  0
LINE
  8
0
 10
147.138
 20
149.52
 11
146.913
 21
149.619
  0
LINE
  8
0
 10
146.913
 20
149.619
 11
146.684
 21
149.708
  0
LINE
  8
0
 10
146.684
 20
149.708
 11
146.451
 21
149.785
  0
LINE
  8
0
 10
146.451
 20
149.785
 11
146.215
 21
149.85
  0
LINE
  8
0
 10
146.215
 20
149.85
 11
145.975
 21
149.904
  0
LINE
  8
0
 10
145.975
 20
149.904
 11
145.734
 21
149.946
  0
LINE
  8
0
 10
145.734
 20
149.946
 11
145.49
 21
149.976
  0
LINE
  8
0
 10
145.49
 20
149.976
 11
145.245
 21
149.994
  0
LINE
  8
0
 10
145.245
 20
149.994
 11
145
 21
150
  0
LINE
  8
0
 10
145
 20
150
 11
-145
 21
150
  0
LINE
  8
0
 10
-145
 20
150
 11
-145.245
 21
149.994
  0
LINE
  8
0
 10
-145.245
 20
149.994
 11
-145.49
 21
149.976
  0
LINE
  8
0
 10
-145.49
 20
149.976
 11
-145.734
 21
149.946
  0
LINE
  8
0
 10
-145.734
 20
149.946
 11
-145.975
 21
149.904
  0
LINE
  8
0
 10
-145.975
 20
149.904
 11
-146.215
 21
149.85
  0
LINE
  8
0
 10
-146.215
 20
149.85
 11
-146.451
 21
149.785
  0
LINE
  8
0
 10
-146.451
 20
149.785
 11
-146.684
 21
149.708
  0
LINE
  8
0
 10
-146.684
 20
149.708
 11
-146.913
 21
149.619
  0
LINE
  8
0
 10
-146.913
 20
149.619
 11
-147.138
 21
149.52
  0
LINE
  8
0
 10
-147.138
 20
149.52
 11
-147.357
 21
149.41
  0
LINE
  8
0
 10
-147.357
 20
149.41
 11
-147.571
 21
149.289
  0
LINE
  8
0
 10
-147.571
 20
149.289
 11
-147.778
 21
149.157
  0
LINE
  8
0
 10
-147.778
 20
149.157
 11
-147.979
 21
149.016
  0
LINE
  8
0
 10
-147.979
 20
149.016
 11
-148.172
 21
148.865
  0
LINE
  8
0
 10
-148.172
 20
148.865
 11
-148.358
 21
148.705
  0
LINE
  8
0
 10
-148.358
 20
148.705
 11
-148.536
 21
148.536
  0
LINE
  8
0
 10
-148.536
 20
148.536
 11
-148.705
 21
148.358
  0
LINE
  8
0
 10
-148.705
 20
148.358
 11
-148.865
 21
148.172
  0
LINE
  8
0
 10
-148.865
 20
148.172
 11
-149.016
 21
147.979
  0
LINE
  8
0
 10
-149.016
 20
147.979
 11
-149.157
 21
147.778
  0
LINE
  8
0
 10
-149.157
 20
147.778
 11
-149.289
 21
147.571
  0
LINE
  8
0
 10
-149.289
 20
147.571
 11
-149.41
 21
147.357
  0
LINE
  8
0
 10
-149.41
 20
147.357
 11
-149.52
 21
147.138
  0
LINE
  8
0
 10
-149.52
 20
147.138
 11
-149.619
 21
146.913
  0
LINE
  8
0
 10
-149.619
 20
146.913
 11
-149.708
 21
146.684
  0
LINE
  8
0
 10
-149.708
 20
146.684
 11
-149.785
 21
146.451
  0
LINE
  8
0
 10
-149.785
 20
146.451
 11
-149.85
 21
146.215
  0
LINE
  8
0
 10
-149.85
 20
146.215
 11
-149.904
 21
145.975
  0
LINE
  8
0
 10
-149.904
 20
145.975
 11
-149.946
 21
145.734
  0
LINE
  8
0
 10
-149.946
 20
145.734
 11
-149.976
 21
145.49
  0
LINE
  8
0
 10
-149.976
 20
145.49
 11
-149.994
 21
145.245
  0
LINE
  8
0
 10
-149.994
 20
145.245
 11
-150
 21
145
  0
LINE
  8
0
 10
-150
 20
145
 11
-150
 21
-145
  0
LINE
  8
0
 10
-150
 20
-145
 11
-149.994
 21
-145.245
  0
LINE
  8
0
 10
-149.994
 20
-145.245
 11
-149.976
 21
-145.49
  0
LINE
  8
0
 10
-149.976
 20
-145.49
 11
-149.946
 21
-145.734
  0
LINE
  8
0
 10
-149.946
 20
-145.734
 11
-149.904
 21
-145.975
  0
LINE
  8
0
 10
-149.904
 20
-145.975
 11
-149.85
 21
-146.215
  0
LINE
  8
0
 10
-149.85
 20
-146.215
 11
-149.785
 21
-146.451
  0
LINE
  8
0
 10
-149.785
 20
-146.451
 11
-149.708
 21
-146.684
  0
LINE
  8
0
 10
-149.708
 20
-146.684
 11
-149.619
 21
-146.913
  0
LINE
  8
0
 10
-149.619
 20
-146.913
 11
-149.52
 21
-147.138
  0
LINE
  8
0
 10
-149.52
 20
-147.138
 11
-149.41
 21
-147.357
  0
LINE
  8
0
 10
-149.41
 20
-147.357
 11
-149.289
 21
-147.571
  0
LINE
  8
0
 10
-149.289
 20
-147.571
 11
-149.157
 21
-147.778
  0
LINE
  8
0
 10
-149.157
 20
-147.778
 11
-149.016
 21
-147.979
  0
LINE
  8
0
 10
-149.016
 20
-147.979
 11
-148.865
 21
-148.172
  0
LINE
  8
0
 10
-148.865
 20
-148.172
 11
-148.705
 21
-148.358
  0
LINE
  8
0
 10
-148.705
 20
-148.358
 11
-148.536
 21
-148.536
  0
LINE
  8
0
 10
-148.536
 20
-148.536
 11
-148.358
 21
-148.705
  0
LINE
  8
0
 10
-148.358
 20
-148.705
 11
-148.172
 21
-148.865
  0
LINE
  8
0
 10
-148.172
 20
-148.865
 11
-147.979
 21
-149.016
  0
LINE
  8
0
 10
-147.979
 20
-149.016
 11
-147.778
 21
-149.157
  0
LINE
  8
0
 10
-147.778
 20
-149.157
 11
-147.571
 21
-149.289
  0
LINE
  8
0
 10
-147.571
 20
-149.289
 11
-147.357
 21
-149.41
  0
LINE
  8
0
 10
-147.357
 20
-149.41
 11
-147.138
 21
-149.52
  0
LINE
  8
0
 10
-147.138
 20
-149.52
 11
-146.913
 21
-149.619
  0
LINE
  8
0
 10
-146.913
 20
-149.619
 11
-146.684
 21
-149.708
  0
LINE
  8
0
 10
-146.684
 20
-149.708
 11
-146.451
 21
-149.785
  0
LINE
  8
0
 10
-146.451
 20
-149.785
 11
-146.215
 21
-149.85
  0
LINE
  8
0
 10
-146.215
 20
-149.85
 11
-145.975
 21
-149.904
  0
LINE
  8
0
 10
-145.975
 20
-149.904
 11
-145.734
 21
-149.946
  0
LINE
  8
0
 10
-145.734
 20
-149.946
 11
-145.49
 21
-149.976
  0
LINE
  8
0
 10
-145.49
 20
-149.976
 11
-145.245
 21
-149.994
  0
LINE
  8
0
 10
-145.245
 20
-149.994
 11
-145
 21
-150
  0
LINE
  8
0
 10
-145
 20
-150
 11
145
 21
-150
  0
LINE
  8
0
 10
145
 20
-150
 11
145.245
 21
-149.994
  0
LINE
  8
0
 10
107.791
 20
138.362
 11
107.713
 21
138.472
  0
LINE
  8
0
 10
107.713
 20
138.472
 11
107.641
 21
138.586
  0
LINE
  8
0
 10
107.641
 20
138.586
 11
107.575
 21
138.704
  0
LINE
  8
0
 10
107.575
 20
138.704
 11
107.514
 21
138.824
  0
LINE
  8
0
 10
107.514
 20
138.824
 11
107.459
 21
138.948
  0
LINE
  8
0
 10
107.459
 20
138.948
 11
107.411
 21
139.074
  0
LINE
  8
0
 10
107.411
 20
139.074
 11
107.368
 21
139.202
  0
LINE
  8
0
 10
107.368
 20
139.202
 11
107.332
 21
139.332
  0
LINE
  8
0
 10
107.332
 20
139.332
 11
107.303
 21
139.464
  0
LINE
  8
0
 10
107.303
 20
139.464
 11
107.28
 21
139.596
  0
LINE
  8
0
 10
107.28
 20
139.596
 11
107.263
 21
139.73
  0
LINE
  8
0
 10
107.263
 20
139.73
 11
107.253
 21
139.865
  0
LINE
  8
0
 10
107.253
 20
139.865
 11
107.25
 21
140
  0
LINE
  8
0
 10
107.25
 20
140
 11
107.253
 21
140.135
  0
LINE
  8
0
 10
107.253
 20
140.135
 11
107.263
 21
140.27
  0
LINE
  8
0
 10
107.263
 20
140.27
 11
107.28
 21
140.404
  0
LINE
  8
0
 10
107.28
 20
140.404
 11
107.303
 21
140.536
  0
LINE
  8
0
 10
107.303
 20
140.536
 11
107.332
 21
140.668
  0
LINE
  8
0
 10
107.332
 20
140.668
 11
107.368
 21
140.798
  0
LINE
  8
0
 10
107.368
 20
140.798
 11
107.411
 21
140.926
  0
LINE
  8
0
 10
107.411
 20
140.926
 11
107.459
 21
141.052
  0
LINE
  8
0
 10
107.459
 20
141.052
 11
107.514
 21
141.176
  0
LINE
  8
0
 10
107.514
 20
141.176
 11
107.575
 21
141.296
  0
LINE
  8
0
 10
107.575
 20
141.296
 11
107.641
 21
141.414
  0
LINE
  8
0
 10
107.641
 20
141.414
 11
107.713
 21
141.528
  0
LINE
  8
0
 10
107.713
 20
141.528
 11
107.791
 21
141.638
  0
LINE
  8
0
 10
107.791
 20
141.638
 11
107.874
 21
141.745
  0
LINE
  8
0
 10
107.874
 20
141.745
 11
107.962
 21
141.847
  0
LINE
  8
0
 10
107.962
 20
141.847
 11
108.055
 21
141.945
  0
LINE
  8
0
 10
108.055
 20
141.945
 11
108.153
 21
142.038
  0
LINE
  8
0
 10
108.153
 20
142.038
 11
108.255
 21
142.126
  0
LINE
  8
0
 10
108.255
 20
142.126
 11
108.362
 21
142.209
  0
LINE
  8
0
 10
108.362
 20
142.209
 11
108.472
 21
142.287
  0
LINE
  8
0
 10
108.472
 20
142.287
 11
108.586
 21
142.359
  0
LINE
  8
0
 10
108.586
 20
142.359
 11
108.704
 21
142.425
  0
LINE
  8
0
 10
108.704
 20
142.425
 11
108.824
 21
142.486
  0
LINE
  8
0
 10
108.824
 20
142.486
 11
108.948
 21
142.541
  0
LINE
  8
0
 10
108.948
 20
142.541
 11
109.074
 21
142.589
  0
LINE
  8
0
 10
109.074
 20
142.589
 11
109.202
 21
142.632
  0
LINE
  8
0
 10
109.202
 20
142.632
 11
109.332
 21
142.668
  0
LINE
  8
0
 10
109.332
 20
142.668
 11
109.464
 21
142.697
  0
LINE
  8
0
 10
109.464
 20
142.697
 11
109.596
 21
142.72
  0
LINE
  8
0
 10
109.596
 20
142.72
 11
109.73
 21
142.737
  0
LINE
  8
0
 10
109.73
 20
142.737
 11
109.865
 21
142.747
  0
LINE
  8
0
 10
109.865
 20
142.747
 11
110
 21
142.75
  0
LINE
  8
0
 10
110
 20
142.75
 11
110.135
 21
142.747
  0
LINE
  8
0
 10
110.135
 20
142.747
 11
110.27
 21
142.737
  0
LINE
  8
0
 10
110.27
 20
142.737
 11
110.404
 21
142.72
  0
LINE
  8
0
 10
110.404
 20
142.72
 11
110.536
 21
142.697
  0
LINE
  8
0
 10
110.536
 20
142.697
 11
110.668
 21
142.668
  0
LINE
  8
0
 10
110.668
 20
142.668
 11
110.798
 21
142.632
  0
LINE
  8
0
 10
110.798
 20
142.632
 11
110.926
 21
142.589
  0
LINE
  8
0
 10
110.926
 20
142.589
 11
111.052
 21
142.541
  0
LINE
  8
0
 10
111.052
 20
142.541
 11
111.176
 21
142.486
  0
LINE
  8
0
 10
111.176
 20
142.486
 11
111.296
 21
142.425
  0
LINE
  8
0
 10
111.296
 20
142.425
 11
111.414
 21
142.359
  0
LINE
  8
0
 10
111.414
 20
142.359
 11
111.528
 21
142.287
  0
LINE
  8
0
 10
111.528
 20
142.287
 11
111.638
 21
142.209
  0
LINE
  8
0
 10
111.638
 20
142.209
 11
111.745
 21
142.126
  0
LINE
  8
0
 10
111.745
 20
142.126
 11
111.847
 21
142.038
  0
LINE
  8
0
 10
111.847
 20
142.038
 11
111.945
 21
141.945
  0
LINE
  8
0
 10
111.945
 20
141.945
 11
112.038
 21
141.847
  0
LINE
  8
0
 10
112.038
 20
141.847
 11
112.126
 21
141.745
  0
LINE
  8
0
 10
112.126
 20
141.745
 11
112.209
 21
141.638
  0
LINE
  8
0
 10
112.209
 20
141.638
 11
112.287
 21
141.528
  0
LINE
  8
0
 10
112.287
 20
141.528
 11
112.359
 21
141.414
  0
LINE
  8
0
 10
112.359
 20
141.414
 11
112.425
 21
141.296
  0
LINE
  8
0
 10
112.425
 20
141.296
 11
112.486
 21
141.176
  0
LINE
  8
0
 10
112.486
 20
141.176
 11
112.541
 21
141.052
  0
LINE
  8
0
 10
112.541
 20
141.052
 11
112.589
 21
140.926
  0
LINE
  8
0
 10
112.589
 20
140.926
 11
112.632
 21
140.798
  0
LINE
  8
0
 10
112.632
 20
140.798
 11
112.668
 21
140.668
  0
LINE
  8
0
 10
112.668
 20
140.668
 11
112.697
 21
140.536
  0
LINE
  8
0
 10
112.697
 20
140.536
 11
112.72
 21
140.404
  0
LINE
  8
0
 10
112.72
 20
140.404
 11
112.737
 21
140.27
  0
LINE
  8
0
 10
112.737
 20
140.27
 11
112.747
 21
140.135
  0
LINE
  8
0
 10
112.747
 20
140.135
 11
112.75
 21
140
  0
LINE
  8
0
 10
112.75
 20
140
 11
112.747
 21
139.865
  0
LINE
  8
0
 10
112.747
 20
139.865
 11
112.737
 21
139.73
  0
LINE
  8
0
 10
112.737
 20
139.73
 11
112.72
 21
139.596
  0
LINE
  8
0
 10
112.72
 20
139.596
 11
112.697
 21
139.464
  0
LINE
  8
0
 10
112.697
 20
139.464
 11
112.668
 21
139.332
  0
LINE
  8
0
 10
112.668
 20
139.332
 11
112.632
 21
139.202
  0
LINE
  8
0
 10
112.632
 20
139.202
 11
112.589
 21
139.074
  0
LINE
  8
0
 10
112.589
 20
139.074
 11
112.541
 21
138.948
  0
LINE
  8
0
 10
112.541
 20
138.948
 11
112.486
 21
138.824
  0
LINE
  8
0
 10
112.486
 20
138.824
 11
112.425
 21
138.704
  0
LINE
  8
0
 10
112.425
 20
138.704
 11
112.359
 21
138.586
  0
LINE
  8
0
 10
112.359
 20
138.586
 11
112.287
 21
138.472
  0
LINE
  8
0
 10
112.287
 20
138.472
 11
112.209
 21
138.362
  0
LINE
  8
0
 10
112.209
 20
138.362
 11
112.126
 21
138.255
  0
LINE
  8
0
 10
112.126
 20
138.255
 11
112.038
 21
138.153
  0
LINE
  8
0
 10
112.038
 20
138.153
 11
111.945
 21
138.055
  0
LINE
  8
0
 10
111.945
 20
138.055
 11
111.847
 21
137.962
  0
LINE
  8
0
 10
111.847
 20
137.962
 11
111.745
 21
137.874
  0
LINE
  8
0
 10
111.745
 20
137.874
 11
111.638
 21
137.791
  0
LINE
  8
0
 10
111.638
 20
137.791
 11
111.528
 21
137.713
  0
LINE
  8
0
 10
111.528
 20
137.713
 11
111.414
 21
137.641
  0
LINE
  8
0
 10
111.414
 20
137.641
 11
111.296
 21
137.575
  0
LINE
  8
0
 10
111.296
 20
137.575
 11
111.176
 21
137.514
  0
LINE
  8
0
 10
111.176
 20
137.514
 11
111.052
 21
137.459
  0
LINE
  8
0
 10
111.052
 20
137.459
 11
110.926
 21
137.411
  0
LINE
  8
0
 10
110.926
 20
137.411
 11
110.798
 21
137.368
  0
LINE
  8
0
 10
110.798
 20
137.368
 11
110.668
 21
137.332
  0
LINE
  8
0
 10
110.668
 20
137.332
 11
110.536
 21
137.303
  0
LINE
  8
0
 10
110.536
 20
137.303
 11
110.404
 21
137.28
  0
LINE
  8
0
 10
110.404
 20
137.28
 11
110.27
 21
137.263
  0
LINE
  8
0
 10
110.27
 20
137.263
 11
110.135
 21
137.253
  0
LINE
  8
0
 10
110.135
 20
137.253
 11
110
 21
137.25
  0
LINE
  8
0
 10
110
 20
137.25
 11
109.865
 21
137.253
  0
LINE
  8
0
 10
109.865
 20
137.253
 11
109.73
 21
137.263
  0
LINE
  8
0
 10
109.73
 20
137.263
 11
109.596
 21
137.28
  0
LINE
  8
0
 10
109.596
 20
137.28
 11
109.464
 21
137.303
  0
LINE
  8
0
 10
109.464
 20
137.303
 11
109.332
 21
137.332
  0
LINE
  8
0
 10
109.332
 20
137.332
 11
109.202
 21
137.368
  0
LINE
  8
0
 10
109.202
 20
137.368
 11
109.074
 21
137.411
  0
LINE
  8
0
 10
109.074
 20
137.411
 11
108.948
 21
137.459
  0
LINE
  8
0
 10
108.948
 20
137.459
 11
108.824
 21
137.514
  0
LINE
  8
0
 10
108.824
 20
137.514
 11
108.704
 21
137.575
  0
LINE
  8
0
 10
108.704
 20
137.575
 11
108.586
 21
137.641
  0
LINE
  8
0
 10
108.586
 20
137.641
 11
108.472
 21
137.713
  0
LINE
  8
0
 10
108.472
 20
137.713
 11
108.362
 21
137.791
  0
LINE
  8
0
 10
108.362
 20
137.791
 11
108.255
 21
137.874
  0
LINE
  8
0
 10
108.255
 20
137.874
 11
108.153
 21
137.962
  0
LINE
  8
0
 10
108.153
 20
137.962
 11
108.055
 21
138.055
  0
LINE
  8
0
 10
108.055
 20
138.055
 11
107.962
 21
138.153
  0
LINE
  8
0
 10
107.962
 20
138.153
 11
107.874
 21
138.255
  0
LINE
  8
0
 10
107.874
 20
138.255
 11
107.791
 21
138.362
  0
LINE
  8
0
 10
-140.135
 20
107.253
 11
-140.27
 21
107.263
  0
LINE
  8
0
 10
-140.27
 20
107.263
 11
-140.404
 21
107.28
  0
LINE
  8
0
 10
-140.404
 20
107.28
 11
-140.536
 21
107.303
  0
LINE
  8
0
 10
-140.536
 20
107.303
 11
-140.668
 21
107.332
  0
LINE
  8
0
 10
-140.668
 20
107.332
 11
-140.798
 21
107.368
  0
LINE
  8
0
 10
-140.798
 20
107.368
 11
-140.926
 21
107.411
  0
LINE
  8
0
 10
-140.926
 20
107.411
 11
-141.052
 21
107.459
  0
LINE
  8
0
 10
-141.052
 20
107.459
 11
-141.176
 21
107.514
  0
LINE
  8
0
 10
-141.176
 20
107.514
 11
-141.296
 21
107.575
  0
LINE
  8
0
 10
-141.296
 20
107.575
 11
-141.414
 21
107.641
  0
LINE
  8
0
 10
-141.414
 20
107.641
 11
-141.528
 21
107.713
  0
LINE
  8
0
 10
-141.528
 20
107.713
 11
-141.638
 21
107.791
  0
LINE
  8
0
 10
-141.638
 20
107.791
 11
-141.745
 21
107.874
  0
LINE
  8
0
 10
-141.745
 20
107.874
 11
-141.847
 21
107.962
  0
LINE
  8
0
 10
-141.847
 20
107.962
 11
-141.945
 21
108.055
  0
LINE
  8
0
 10
-141.945
 20
108.055
 11
-142.038
 21
108.153
  0
LINE
  8
0
 10
-142.038
 20
108.153
 11
-142.126
 21
108.255
  0
LINE
  8
0
 10
-142.126
 20
108.255
 11
-142.209
 21
108.362
  0
LINE
  8
0
 10
-142.209
 20
108.362
 11
-142.287
 21
108.472
  0
LINE
  8
0
 10
-142.287
 20
108.472
 11
-142.359
 21
108.586
  0
LINE
  8
0
 10
-142.359
 20
108.586
 11
-142.425
 21
108.704
  0
LINE
  8
0
 10
-142.425
 20
108.704
 11
-142.486
 21
108.824
  0
LINE
  8
0
 10
-142.486
 20
108.824
 11
-142.541
 21
108.948
  0
LINE
  8
0
 10
-142.541
 20
108.948
 11
-142.589
 21
109.074
  0
LINE
  8
0
 10
-142.589
 20
109.074
 11
-142.632
 21
109.202
  0
LINE
  8
0
 10
-142.632
 20
109.202
 11
-142.668
 21
109.332
  0
LINE
  8
0
 10
-142.668
 20
109.332
 11
-142.697
 21
109.464
  0
LINE
  8
0
 10
-142.697
 20
109.464
 11
-142.72
 21
109.596
  0
LINE
  8
0
 10
-142.72
 20
109.596
 11
-142.737
 21
109.73
  0
LINE
  8
0
 10
-142.737
 20
109.73
 11
-142.747
 21
109.865
  0
LINE
  8
0
 10
-142.747
 20
109.865
 11
-142.75
 21
110
  0
LINE
  8
0
 10
-142.75
 20
110
 11
-142.747
 21
110.135
  0
LINE
  8
0
 10
-142.747
 20
110.135
 11
-142.737
 21
110.27
  0
LINE
  8
0
 10
-142.737
 20
110.27
 11
-142.72
 21
110.404
  0
LINE
  8
0
 10
-142.72
 20
110.404
 11
-142.697
 21
110.536
  0
LINE
  8
0
 10
-142.697
 20
110.536
 11
-142.668
 21
110.668
  0
LINE
  8
0
 10
-142.668
 20
110.668
 11
-142.632
 21
110.798
  0
LINE
  8
0
 10
-142.632
 20
110.798
 11
-142.589
 21
110.926
  0
LINE
  8
0
 10
-142.589
 20
110.926
 11
-142.541
 21
111.052
  0
LINE
  8
0
 10
-142.541
 20
111.052
 11
-142.486
 21
111.176
  0
LINE
  8
0
 10
-142.486
 20
111.176
 11
-142.425
 21
111.296
  0
LINE
  8
0
 10
-142.425
 20
111.296
 11
-142.359
 21
111.414
  0
LINE
  8
0
 10
-142.359
 20
111.414
 11
-142.287
 21
111.528
  0
LINE
  8
0
 10
-142.287
 20
111.528
 11
-142.209
 21
111.638
  0
LINE
  8
0
 10
-142.209
 20
111.638
 11
-142.126
 21
111.745
  0
LINE
  8
0
 10
-142.126
 20
111.745
 11
-142.038
 21
111.847
  0
LINE
  8
0
 10
-142.038
 20
111.847
 11
-141.945
 21
111.945
  0
LINE
  8
0
 10
-141.945
 20
111.945
 11
-141.847
 21
112.038
  0
LINE
  8
0
 10
-141.847
 20
112.038
 11
-141.745
 21
112.126
  0
LINE
  8
0
 10
-141.745
 20
112.126
 11
-141.638
 21
112.209
  0
LINE
  8
0
 10
-141.638
 20
112.209
 11
-141.528
 21
112.287
  0
LINE
  8
0
 10
-141.528
 20
112.287
 11
-141.414
 21
112.359
  0
LINE
  8
0
 10
-141.414
 20
112.359
 11
-141.296
 21
112.425
  0
LINE
  8
0
 10
-141.296
 20
112.425
 11
-141.176
 21
112.486
  0
LINE
  8
0
 10
-141.176
 20
112.486
 11
-141.052
 21
112.541
  0
LINE
  8
0
 10
-141.052
 20
112.541
 11
-140.926
 21
112.589
  0
LINE
  8
0
 10
-140.926
 20
112.589
 11
-140.798
 21
112.632
  0
LINE
  8
0
 10
-140.798
 20
112.632
 11
-140.668
 21
112.668
  0
LINE
  8
0
 10
-140.668
 20
112.668
 11
-140.536
 21
112.697
  0
LINE
  8
0
 10
-140.536
 20
112.697
 11
-140.404
 21
112.72
  0
LINE
  8
0
 10
-140.404
 20
112.72
 11
-140.27
 21
112.737
  0
LINE
  8
0
 10
-140.27
 20
112.737
 11
-140.135
 21
112.747
  0
LINE
  8
0
 10
-140.135
 20
112.747
 11
-140
 21
112.75
  0
LINE
  8
0
 10
-140
 20
112.75
 11
-139.865
 21
112.747
  0
LINE
  8
0
 10
-139.865
 20
112.747
 11
-139.73
 21
112.737
  0
LINE
  8
0
 10
-139.73
 20
112.737
 11
-139.596
 21
112.72
  0
LINE
  8
0
 10
-139.596
 20
112.72
 11
-139.464
 21
112.697
  0
LINE
  8
0
 10
-139.464
 20
112.697
 11
-139.332
 21
112.668
  0
LINE
  8
0
 10
-139.332
 20
112.668
 11
-139.202
 21
112.632
  0
LINE
  8
0
 10
-139.202
 20
112.632
 11
-139.074
 21
112.589
  0
LINE
  8
0
 10
-139.074
 20
112.589
 11
-138.948
 21
112.541
  0
LINE
  8
0
 10
-138.948
 20
112.541
 11
-138.824
 21
112.486
  0
LINE
  8
0
 10
-138.824
 20
112.486
 11
-138.704
 21
112.425
  0
LINE
  8
0
 10
-138.704
 20
112.425
 11
-138.586
 21
112.359
  0
LINE
  8
0
 10
-138.586
 20
112.359
 11
-138.472
 21
112.287
  0
LINE
  8
0
 10
-138.472
 20
112.287
 11
-138.362
 21
112.209
  0
LINE
  8
0
 10
-138.362
 20
112.209
 11
-138.255
 21
112.126
  0
LINE
  8
0
 10
-138.255
 20
112.126
 11
-138.153
 21
112.038
  0
LINE
  8
0
 10
-138.153
 20
112.038
 11
-138.055
 21
111.945
  0
LINE
  8
0
 10
-138.055
 20
111.945
 11
-137.962
 21
111.847
  0
LINE
  8
0
 10
-137.962
 20
111.847
 11
-137.874
 21
111.745
  0
LINE
  8
0
 10
-137.874
 20
111.745
 11
-137.791
 21
111.638
  0
LINE
  8
0
 10
-137.791
 20
111.638
 11
-137.713
 21
111.528
  0
LINE
  8
0
 10
-137.713
 20
111.528
 11
-137.641
 21
111.414
  0
LINE
  8
0
 10
-137.641
 20
111.414
 11
-137.575
 21
111.296
  0
LINE
  8
0
 10
-137.575
 20
111.296
 11
-137.514
 21
111.176
  0
LINE
  8
0
 10
-137.514
 20
111.176
 11
-137.459
 21
111.052
  0
LINE
  8
0
 10
-137.459
 20
111.052
 11
-137.411
 21
110.926
  0
LINE
  8
0
 10
-137.411
 20
110.926
 11
-137.368
 21
110.798
  0
LINE
  8
0
 10
-137.368
 20
110.798
 11
-137.332
 21
110.668
  0
LINE
  8
0
 10
-137.332
 20
110.668
 11
-137.303
 21
110.536
  0
LINE
  8
0
 10
-137.303
 20
110.536
 11
-137.28
 21
110.404
  0
LINE
  8
0
 10
-137.28
 20
110.404
 11
-137.263
 21
110.27
  0
LINE
  8
0
 10
-137.263
 20
110.27
 11
-137.253
 21
110.135
  0
LINE
  8
0
 10
-137.253
 20
110.135
 11
-137.25
 21
110
  0
LINE
  8
0
 10
-137.25
 20
110
 11
-137.253
 21
109.865
  0
LINE
  8
0
 10
-137.253
 20
109.865
 11
-137.263
 21
109.73
  0
LINE
  8
0
 10
-137.263
 20
109.73
 11
-137.28
 21
109.596
  0
LINE
  8
0
 10
-137.28
 20
109.596
 11
-137.303
 21
109.464
  0
LINE
  8
0
 10
-137.303
 20
109.464
 11
-137.332
 21
109.332
  0
LINE
  8
0
 10
-137.332
 20
109.332
 11
-137.368
 21
109.202
  0
LINE
  8
0
 10
-137.368
 20
109.202
 11
-137.411
 21
109.074
  0
LINE
  8
0
 10
-137.411
 20
109.074
 11
-137.459
 21
108.948
  0
LINE
  8
0
 10
-137.459
 20
108.948
 11
-137.514
 21
108.824
  0
LINE
  8
0
 10
-137.514
 20
108.824
 11
-137.575
 21
108.704
  0
LINE
  8
0
 10
-137.575
 20
108.704
 11
-137.641
 21
108.586
  0
LINE
  8
0
 10
-137.641
 20
108.586
 11
-137.713
 21
108.472
  0
LINE
  8
0
 10
-137.713
 20
108.472
 11
-137.791
 21
108.362
  0
LINE
  8
0
 10
-137.791
 20
108.362
 11
-137.874
 21
108.255
  0
LINE
  8
0
 10
-137.874
 20
108.255
 11
-137.962
 21
108.153
  0
LINE
  8
0
 10
-137.962
 20
108.153
 11
-138.055
 21
108.055
  0
LINE
  8
0
 10
-138.055
 20
108.055
 11
-138.153
 21
107.962
  0
LINE
  8
0
 10
-138.153
 20
107.962
 11
-138.255
 21
107.874
  0
LINE
  8
0
 10
-138.255
 20
107.874
 11
-138.362
 21
107.791
  0
LINE
  8
0
 10
-138.362
 20
107.791
 11
-138.472
 21
107.713
  0
LINE
  8
0
 10
-138.472
 20
107.713
 11
-138.586
 21
107.641
  0
LINE
  8
0
 10
-138.586
 20
107.641
 11
-138.704
 21
107.575
  0
LINE
  8
0
 10
-138.704
 20
107.575
 11
-138.824
 21
107.514
  0
LINE
  8
0
 10
-138.824
 20
107.514
 11
-138.948
 21
107.459
  0
LINE
  8
0
 10
-138.948
 20
107.459
 11
-139.074
 21
107.411
  0
LINE
  8
0
 10
-139.074
 20
107.411
 11
-139.202
 21
107.368
  0
LINE
  8
0
 10
-139.202
 20
107.368
 11
-139.332
 21
107.332
  0
LINE
  8
0
 10
-139.332
 20
107.332
 11
-139.464
 21
107.303
  0
LINE
  8
0
 10
-139.464
 20
107.303
 11
-139.596
 21
107.28
  0
LINE
  8
0
 10
-139.596
 20
107.28
 11
-139.73
 21
107.263
  0
LINE
  8
0
 10
-139.73
 20
107.263
 11
-139.865
 21
107.253
  0
LINE
  8
0
 10
-139.865
 20
107.253
 11
-140
 21
107.25
  0
LINE
  8
0
 10
-140
 20
107.25
 11
-140.135
 21
107.253
  0
LINE
  8
0
 10
139.865
 20
107.253
 11
139.73
 21
107.263
  0
LINE
  8
0
 10
139.73
 20
107.263
 11
139.596
 21
107.28
  0
LINE
  8
0
 10
139.596
 20
107.28
 11
139.464
 21
107.303
  0
LINE
  8
0
 10
139.464
 20
107.303
 11
139.332
 21
107.332
  0
LINE
  8
0
 10
139.332
 20
107.332
 11
139.202
 21
107.368
  0
LINE
  8
0
 10
139.202
 20
107.368
 11
139.074
 21
107.411
  0
LINE
  8
0
 10
139.074
 20
107.411
 11
138.948
 21
107.459
  0
LINE
  8
0
 10
138.948
 20
107.459
 11
138.824
 21
107.514
  0
LINE
  8
0
 10
138.824
 20
107.514
 11
138.704
 21
107.575
  0
LINE
  8
0
 10
138.704
 20
107.575
 11
138.586
 21
107.641
  0
LINE
  8
0
 10
138.586
 20
107.641
 11
138.472
 21
107.713
  0
LINE
  8
0
 10
138.472
 20
107.713
 11
138.362
 21
107.791
  0
LINE
  8
0
 10
138.362
 20
107.791
 11
138.255
 21
107.874
  0
LINE
  8
0
 10
138.255
 20
107.874
 11
138.153
 21
107.962
  0
LINE
  8
0
 10
138.153
 20
107.962
 11
138.055
 21
108.055
  0
LINE
  8
0
 10
138.055
 20
108.055
 11
137.962
 21
108.153
  0
LINE
  8
0
 10
137.962
 20
108.153
 11
137.874
 21
108.255
  0
LINE
  8
0
 10
137.874
 20
108.255
 11
137.791
 21
108.362
  0
LINE
  8
0
 10
137.791
 20
108.362
 11
137.713
 21
108.472
  0
LINE
  8
0
 10
137.713
 20
108.472
 11
137.641
 21
108.586
  0
LINE
  8
0
 10
137.641
 20
108.586
 11
137.575
 21
108.704
  0
LINE
  8
0
 10
137.575
 20
108.704
 11
137.514
 21
108.824
  0
LINE
  8
0
 10
137.514
 20
108.824
 11
137.459
 21
108.948
  0
LINE
  8
0
 10
137.459
 20
108.948
 11
137.411
 21
109.074
  0
LINE
  8
0
 10
137.411
 20
109.074
 11
137.368
 21
109.202
  0
LINE
  8
0
 10
137.368
 20
109.202
 11
137.332
 21
109.332
  0
LINE
  8
0
 10
137.332
 20
109.332
 11
137.303
 21
109.464
  0
LINE
  8
0
 10
137.303
 20
109.464
 11
137.28
 21
109.596
  0
LINE
  8
0
 10
137.28
 20
109.596
 11
137.263
 21
109.73
  0
LINE
  8
0
 10
137.263
 20
109.73
 11
137.253
 21
109.865
  0
LINE
  8
0
 10
137.253
 20
109.865
 11
137.25
 21
110
  0
LINE
  8
0
 10
137.25
 20
110
 11
137.253
 21
110.135
  0
LINE
  8
0
 10
137.253
 20
110.135
 11
137.263
 21
110.27
  0
LINE
  8
0
 10
137.263
 20
110.27
 11
137.28
 21
110.404
  0
LINE
  8
0
 10
137.28
 20
110.404
 11
137.303
 21
110.536
  0
LINE
  8
0
 10
137.303
 20
110.536
 11
137.332
 21
110.668
  0
LINE
  8
0
 10
137.332
 20
110.668
 11
137.368
 21
110.798
  0
LINE
  8
0
 10
137.368
 20
110.798
 11
137.411
 21
110.926
  0
LINE
  8
0
 10
137.411
 20
110.926
 11
137.459
 21
111.052
  0
LINE
  8
0
 10
137.459
 20
111.052
 11
137.514
 21
111.176
  0
LINE
  8
0
 10
137.514
 20
111.176
 11
137.575
 21
111.296
  0
LINE
  8
0
 10
137.575
 20
111.296
 11
137.641
 21
111.414
  0
LINE
  8
0
 10
137.641
 20
111.414
 11
137.713
 21
111.528
  0
LINE
  8
0
 10
137.713
 20
111.528
 11
137.791
 21
111.638
  0
LINE
  8
0
 10
137.791
 20
111.638
 11
137.874
 21
111.745
  0
LINE
  8
0
 10
137.874
 20
111.745
 11
137.962
 21
111.847
  0
LINE
  8
0
 10
137.962
 20
111.847
 11
138.055
 21
111.945
  0
LINE
  8
0
 10
138.055
 20
111.945
 11
138.153
 21
112.038
  0
LINE
  8
0
 10
138.153
 20
112.038
 11
138.255
 21
112.126
  0
LINE
  8
0
 10
138.255
 20
112.126
 11
138.362
 21
112.209
  0
LINE
  8
0
 10
138.362
 20
112.209
 11
138.472
 21
112.287
  0
LINE
  8
0
 10
138.472
 20
112.287
 11
138.586
 21
112.359
  0
LINE
  8
0
 10
138.586
 20
112.359
 11
138.704
 21
112.425
  0
LINE
  8
0
 10
138.704
 20
112.425
 11
138.824
 21
112.486
  0
LINE
  8
0
 10
138.824
 20
112.486
 11
138.948
 21
112.541
  0
LINE
  8
0
 10
138.948
 20
112.541
 11
139.074
 21
112.589
  0
LINE
  8
0
 10
139.074
 20
112.589
 11
139.202
 21
112.632
  0
LINE
  8
0
 10
139.202
 20
112.632
 11
139.332
 21
112.668
  0
LINE
  8
0
 10
139.332
 20
112.668
 11
139.464
 21
112.697
  0
LINE
  8
0
 10
139.464
 20
112.697
 11
139.596
 21
112.72
  0
LINE
  8
0
 10
139.596
 20
112.72
 11
139.73
 21
112.737
  0
LINE
  8
0
 10
139.73
 20
112.737
 11
139.865
 21
112.747
  0
LINE
  8
0
 10
139.865
 20
112.747
 11
140
 21
112.75
  0
LINE
  8
0
 10
140
 20
112.75
 11
140.135
 21
112.747
  0
LINE
  8
0
 10
140.135
 20
112.747
 11
140.27
 21
112.737
  0
LINE
  8
0
 10
140.27
 20
112.737
 11
140.404
 21
112.72
  0
LINE
  8
0
 10
140.404
 20
112.72
 11
140.536
 21
112.697
  0
LINE
  8
0
 10
140.536
 20
112.697
 11
140.668
 21
112.668
  0
LINE
  8
0
 10
140.668
 20
112.668
 11
140.798
 21
112.632
  0
LINE
  8
0
 10
140.798
 20
112.632
 11
140.926
 21
112.589
  0
LINE
  8
0
 10
140.926
 20
112.589
 11
141.052
 21
112.541
  0
LINE
  8
0
 10
141.052
 20
112.541
 11
141.176
 21
112.486
  0
LINE
  8
0
 10
141.176
 20
112.486
 11
141.296
 21
112.425
  0
LINE
  8
0
 10
141.296
 20
112.425
 11
141.414
 21
112.359
  0
LINE
  8
0
 10
141.414
 20
112.359
 11
141.528
 21
112.287
  0
LINE
  8
0
 10
141.528
 20
112.287
 11
141.638
 21
112.209
  0
LINE
  8
0
 10
141.638
 20
112.209
 11
141.745
 21
112.126
  0
LINE
  8
0
 10
141.745
 20
112.126
 11
141.847
 21
112.038
  0
LINE
  8
0
 10
141.847
 20
112.038
 11
141.945
 21
111.945
  0
LINE
  8
0
 10
141.945
 20
111.945
 11
142.038
 21
111.847
  0
LINE
  8
0
 10
142.038
 20
111.847
 11
142.126
 21
111.745
  0
LINE
  8
0
 10
142.126
 20
111.745
 11
142.209
 21
111.638
  0
LINE
  8
0
 10
142.209
 20
111.638
 11
142.287
 21
111.528
  0
LINE
  8
0
 10
142.287
 20
111.528
 11
142.359
 21
111.414
  0
LINE
  8
0
 10
142.359
 20
111.414
 11
142.425
 21
111.296
  0
LINE
  8
0
 10
142.425
 20
111.296
 11
142.486
 21
111.176
  0
LINE
  8
0
 10
142.486
 20
111.176
 11
142.541
 21
111.052
  0
LINE
  8
0
 10
142.541
 20
111.052
 11
142.589
 21
110.926
  0
LINE
  8
0
 10
142.589
 20
110.926
 11
142.632
 21
110.798
  0
LINE
  8
0
 10
142.632
 20
110.798
 11
142.668
 21
110.668
  0
LINE
  8
0
 10
142.668
 20
110.668
 11
142.697
 21
110.536
  0
LINE
  8
0
 10
142.697
 20
110.536
 11
142.72
 21
110.404
  0
LINE
  8
0
 10
142.72
 20
110.404
 11
142.737
 21
110.27
  0
LINE
  8
0
 10
142.737
 20
110.27
 11
142.747
 21
110.135
  0
LINE
  8
0
 10
142.747
 20
110.135
 11
142.75
 21
110
  0
LINE
  8
0
 10
142.75
 20
110
 11
142.747
 21
109.865
  0
LINE
  8
0
 10
142.747
 20
109.865
 11
142.737
 21
109.73
  0
LINE
  8
0
 10
142.737
 20
109.73
 11
142.72
 21
109.596
  0
LINE
  8
0
 10
142.72
 20
109.596
 11
142.697
 21
109.464
  0
LINE
  8
0
 10
142.697
 20
109.464
 11
142.668
 21
109.332
  0
LINE
  8
0
 10
142.668
 20
109.332
 11
142.632
 21
109.202
  0
LINE
  8
0
 10
142.632
 20
109.202
 11
142.589
 21
109.074
  0
LINE
  8
0
 10
142.589
 20
109.074
 11
142.541
 21
108.948
  0
LINE
  8
0
 10
142.541
 20
108.948
 11
142.486
 21
108.824
  0
LINE
  8
0
 10
142.486
 20
108.824
 11
142.425
 21
108.704
  0
LINE
  8
0
 10
142.425
 20
108.704
 11
142.359
 21
108.586
  0
LINE
  8
0
 10
142.359
 20
108.586
 11
142.287
 21
108.472
  0
LINE
  8
0
 10
142.287
 20
108.472
 11
142.209
 21
108.362
  0
LINE
  8
0
 10
142.209
 20
108.362
 11
142.126
 21
108.255
  0
LINE
  8
0
 10
142.126
 20
108.255
 11
142.038
 21
108.153
  0
LINE
  8
0
 10
142.038
 20
108.153
 11
141.945
 21
108.055
  0
LINE
  8
0
 10
141.945
 20
108.055
 11
141.847
 21
107.962
  0
LINE
  8
0
 10
141.847
 20
107.962
 11
141.745
 21
107.874
  0
LINE
  8
0
 10
141.745
 20
107.874
 11
141.638
 21
107.791
  0
LINE
  8
0
 10
141.638
 20
107.791
 11
141.528
 21
107.713
  0
LINE
  8
0
 10
141.528
 20
107.713
 11
141.414
 21
107.641
  0
LINE
  8
0
 10
141.414
 20
107.641
 11
141.296
 21
107.575
  0
LINE
  8
0
 10
141.296
 20
107.575
 11
141.176
 21
107.514
  0
LINE
  8
0
 10
141.176
 20
107.514
 11
141.052
 21
107.459
  0
LINE
  8
0
 10
141.052
 20
107.459
 11
140.926
 21
107.411
  0
LINE
  8
0
 10
140.926
 20
107.411
 11
140.798
 21
107.368
  0
LINE
  8
0
 10
140.798
 20
107.368
 11
140.668
 21
107.332
  0
LINE
  8
0
 10
140.668
 20
107.332
 11
140.536
 21
107.303
  0
LINE
  8
0
 10
140.536
 20
107.303
 11
140.404
 21
107.28
  0
LINE
  8
0
 10
140.404
 20
107.28
 11
140.27
 21
107.263
  0
LINE
  8
0
 10
140.27
 20
107.263
 11
140.135
 21
107.253
  0
LINE
  8
0
 10
140.135
 20
107.253
 11
140
 21
107.25
  0
LINE
  8
0
 10
140
 20
107.25
 11
139.865
 21
107.253
  0
LINE
  8
0
 10
-0.367996
 20
82.509
 11
-0.735123
 21
82.5361
  0
LINE
  8
0
 10
-0.735123
 20
82.5361
 11
-1.10046
 21
82.5812
  0
LINE
  8
0
 10
-1.10046
 20
82.5812
 11
-1.46317
 21
82.6441
  0
LINE
  8
0
 10
-1.46317
 20
82.6441
 11
-1.82234
 21
82.7248
  0
LINE
  8
0
 10
-1.82234
 20
82.7248
 11
-2.17712
 21
82.8229
  0
LINE
  8
0
 10
-2.17712
 20
82.8229
 11
-2.52667
 21
82.9384
  0
LINE
  8
0
 10
-2.52667
 20
82.9384
 11
-2.87012
 21
83.0709
  0
LINE
  8
0
 10
-2.87012
 20
83.0709
 11
-3.20665
 21
83.2201
  0
LINE
  8
0
 10
-3.20665
 20
83.2201
 11
-3.53546
 21
83.3856
  0
LINE
  8
0
 10
-3.53546
 20
83.3856
 11
-3.85576
 21
83.567
  0
LINE
  8
0
 10
-3.85576
 20
83.567
 11
-4.16676
 21
83.764
  0
LINE
  8
0
 10
-4.16676
 20
83.764
 11
-4.46774
 21
83.9759
  0
LINE
  8
0
 10
-4.46774
 20
83.9759
 11
-4.75795
 21
84.2024
  0
LINE
  8
0
 10
-4.75795
 20
84.2024
 11
-5.03668
 21
84.4429
  0
LINE
  8
0
 10
-5.03668
 20
84.4429
 11
-5.3033
 21
84.6967
  0
LINE
  8
0
 10
-5.3033
 20
84.6967
 11
-5.55713
 21
84.9633
  0
LINE
  8
0
 10
-5.55713
 20
84.9633
 11
-5.79758
 21
85.2421
  0
LINE
  8
0
 10
-5.79758
 20
85.2421
 11
-6.02405
 21
85.5323
  0
LINE
  8
0
 10
-6.02405
 20
85.5323
 11
-6.23601
 21
85.8332
  0
LINE
  8
0
 10
-6.23601
 20
85.8332
 11
-6.43295
 21
86.1442
  0
LINE
  8
0
 10
-6.43295
 20
86.1442
 11
-6.6144
 21
86.4645
  0
LINE
  8
0
 10
-6.6144
 20
86.4645
 11
-6.77991
 21
86.7933
  0
LINE
  8
0
 10
-6.77991
 20
86.7933
 11
-6.92909
 21
87.1299
  0
LINE
  8
0
 10
-6.92909
 20
87.1299
 11
-7.06157
 21
87.4733
  0
LINE
  8
0
 10
-7.06157
 20
87.4733
 11
-7.17705
 21
87.8229
  0
LINE
  8
0
 10
-7.17705
 20
87.8229
 11
-7.27522
 21
88.1776
  0
LINE
  8
0
 10
-7.27522
 20
88.1776
 11
-7.35588
 21
88.5368
  0
LINE
  8
0
 10
-7.35588
 20
88.5368
 11
-7.41882
 21
88.8995
  0
LINE
  8
0
 10
-7.41882
 20
88.8995
 11
-7.46388
 21
89.2649
  0
LINE
  8
0
 10
-7.46388
 20
89.2649
 11
-7.49095
 21
89.632
  0
LINE
  8
0
 10
-7.49095
 20
89.632
 11
-7.5
 21
90
  0
LINE
  8
0
 10
-7.5
 20
90
 11
-7.49095
 21
90.368
  0
LINE
  8
0
 10
-7.49095
 20
90.368
 11
-7.46388
 21
90.7351
  0
LINE
  8
0
 10
-7.46388
 20
90.7351
 11
-7.41882
 21
91.1005
  0
LINE
  8
0
 10
-7.41882
 20
91.1005
 11
-7.35588
 21
91.4632
  0
LINE
  8
0
 10
-7.35588
 20
91.4632
 11
-7.27522
 21
91.8223
  0
LINE
  8
0
 10
-7.27522
 20
91.8223
 11
-7.17705
 21
92.1771
  0
LINE
  8
0
 10
-7.17705
 20
92.1771
 11
-7.06157
 21
92.5267
  0
LINE
  8
0
 10
-7.06157
 20
92.5267
 11
-6.92909
 21
92.8701
  0
LINE
  8
0
 10
-6.92909
 20
92.8701
 11
-6.77991
 21
93.2067
  0
LINE
  8
0
 10
-6.77991
 20
93.2067
 11
-6.6144
 21
93.5355
  0
LINE
  8
0
 10
-6.6144
 20
93.5355
 11
-6.43295
 21
93.8558
  0
LINE
  8
0
 10
-6.43295
 20
93.8558
 11
-6.23601
 21
94.1668
  0
LINE
  8
0
 10
-6.23601
 20
94.1668
 11
-6.02405
 21
94.4677
  0
LINE
  8
0
 10
-6.02405
 20
94.4677
 11
-5.79758
 21
94.7579
  0
LINE
  8
0
 10
-5.79758
 20
94.7579
 11
-5.55713
 21
95.0367
  0
LINE
  8
0
 10
-5.55713
 20
95.0367
 11
-5.3033
 21
95.3033
  0
LINE
  8
0
 10
-5.3033
 20
95.3033
 11
-5.03668
 21
95.5571
  0
LINE
  8
0
 10
-5.03668
 20
95.5571
 11
-4.75795
 21
95.7976
  0
LINE
  8
0
 10
-4.75795
 20
95.7976
 11
-4.46774
 21
96.024
  0
LINE
  8
0
 10
-4.46774
 20
96.024
 11
-4.16676
 21
96.236
  0
LINE
  8
0
 10
-4.16676
 20
96.236
 11
-3.85576
 21
96.433
  0
LINE
  8
0
 10
-3.85576
 20
96.433
 11
-3.53546
 21
96.6144
  0
LINE
  8
0
 10
-3.53546
 20
96.6144
 11
-3.20665
 21
96.7799
  0
LINE
  8
0
 10
-3.20665
 20
96.7799
 11
-2.87012
 21
96.9291
  0
LINE
  8
0
 10
-2.87012
 20
96.9291
 11
-2.52667
 21
97.0616
  0
LINE
  8
0
 10
-2.52667
 20
97.0616
 11
-2.17712
 21
97.177
  0
LINE
  8
0
 10
-2.17712
 20
97.177
 11
-1.82234
 21
97.2752
  0
LINE
  8
0
 10
-1.82234
 20
97.2752
 11
-1.46317
 21
97.3559
  0
LINE
  8
0
 10
-1.46317
 20
97.3559
 11
-1.10046
 21
97.4188
  0
LINE
  8
0
 10
-1.10046
 20
97.4188
 11
-0.735123
 21
97.4639
  0
LINE
  8
0
 10
-0.735123
 20
97.4639
 11
-0.367996
 21
97.491
  0
LINE
  8
0
 10
-0.367996
 20
97.491
 11
0
 21
97.5
  0
LINE
  8
0
 10
0
 20
97.5
 11
0.367996
 21
97.491
  0
LINE
  8
0
 10
0.367996
 20
97.491
 11
0.735123
 21
97.4639
  0
LINE
  8
0
 10
0.735123
 20
97.4639
 11
1.10046
 21
97.4188
  0
LINE
  8
0
 10
1.10046
 20
97.4188
 11
1.46317
 21
97.3559
  0
LINE
  8
0
 10
1.46317
 20
97.3559
 11
1.82234
 21
97.2752
  0
LINE
  8
0
 10
1.82234
 20
97.2752
 11
2.17712
 21
97.177
  0
LINE
  8
0
 10
2.17712
 20
97.177
 11
2.52667
 21
97.0616
  0
LINE
  8
0
 10
2.52667
 20
97.0616
 11
2.87012
 21
96.9291
  0
LINE
  8
0
 10
2.87012
 20
96.9291
 11
3.20665
 21
96.7799
  0
LINE
  8
0
 10
3.20665
 20
96.7799
 11
3.53546
 21
96.6144
  0
LINE
  8
0
 10
3.53546
 20
96.6144
 11
3.85576
 21
96.433
  0
LINE
  8
0
 10
3.85576
 20
96.433
 11
4.16676
 21
96.236
  0
LINE
  8
0
 10
4.16676
 20
96.236
 11
4.46774
 21
96.024
  0
LINE
  8
0
 10
4.46774
 20
96.024
 11
4.75795
 21
95.7976
  0
LINE
  8
0
 10
4.75795
 20
95.7976
 11
5.03668
 21
95.5571
  0
LINE
  8
0
 10
5.03668
 20
95.5571
 11
5.3033
 21
95.3033
  0
LINE
  8
0
 10
5.3033
 20
95.3033
 11
5.55713
 21
95.0367
  0
LINE
  8
0
 10
5.55713
 20
95.0367
 11
5.79758
 21
94.7579
  0
LINE
  8
0
 10
5.79758
 20
94.7579
 11
6.02405
 21
94.4677
  0
LINE
  8
0
 10
6.02405
 20
94.4677
 11
6.23601
 21
94.1668
  0
LINE
  8
0
 10
6.23601
 20
94.1668
 11
6.43295
 21
93.8558
  0
LINE
  8
0
 10
6.43295
 20
93.8558
 11
6.6144
 21
93.5355
  0
LINE
  8
0
 10
6.6144
 20
93.5355
 11
6.77991
 21
93.2067
  0
LINE
  8
0
 10
6.77991
 20
93.2067
 11
6.92909
 21
92.8701
  0
LINE
  8
0
 10
6.92909
 20
92.8701
 11
7.06157
 21
92.5267
  0
LINE
  8
0
 10
7.06157
 20
92.5267
 11
7.17705
 21
92.1771
  0
LINE
  8
0
 10
7.17705
 20
92.1771
 11
7.27522
 21
91.8223
  0
LINE
  8
0
 10
7.27522
 20
91.8223
 11
7.35588
 21
91.4632
  0
LINE
  8
0
 10
7.35588
 20
91.4632
 11
7.41882
 21
91.1005
  0
LINE
  8
0
 10
7.41882
 20
91.1005
 11
7.46388
 21
90.7351
  0
LINE
  8
0
 10
7.46388
 20
90.7351
 11
7.49095
 21
90.368
  0
LINE
  8
0
 10
7.49095
 20
90.368
 11
7.5
 21
90
  0
LINE
  8
0
 10
7.5
 20
90
 11
7.49095
 21
89.632
  0
LINE
  8
0
 10
7.49095
 20
89.632
 11
7.46388
 21
89.2649
  0
LINE
  8
0
 10
7.46388
 20
89.2649
 11
7.41882
 21
88.8995
  0
LINE
  8
0
 10
7.41882
 20
88.8995
 11
7.35588
 21
88.5368
  0
LINE
  8
0
 10
7.35588
 20
88.5368
 11
7.27522
 21
88.1776
  0
LINE
  8
0
 10
7.27522
 20
88.1776
 11
7.17705
 21
87.8229
  0
LINE
  8
0
 10
7.17705
 20
87.8229
 11
7.06157
 21
87.4733
  0
LINE
  8
0
 10
7.06157
 20
87.4733
 11
6.92909
 21
87.1299
  0
LINE
  8
0
 10
6.92909
 20
87.1299
 11
6.77991
 21
86.7933
  0
LINE
  8
0
 10
6.77991
 20
86.7933
 11
6.6144
 21
86.4645
  0
LINE
  8
0
 10
6.6144
 20
86.4645
 11
6.43295
 21
86.1442
  0
LINE
  8
0
 10
6.43295
 20
86.1442
 11
6.23601
 21
85.8332
  0
LINE
  8
0
 10
6.23601
 20
85.8332
 11
6.02405
 21
85.5323
  0
LINE
  8
0
 10
6.02405
 20
85.5323
 11
5.79758
 21
85.2421
  0
LINE
  8
0
 10
5.79758
 20
85.2421
 11
5.55713
 21
84.9633
  0
LINE
  8
0
 10
5.55713
 20
84.9633
 11
5.3033
 21
84.6967
  0
LINE
  8
0
 10
5.3033
 20
84.6967
 11
5.03668
 21
84.4429
  0
LINE
  8
0
 10
5.03668
 20
84.4429
 11
4.75795
 21
84.2024
  0
LINE
  8
0
 10
4.75795
 20
84.2024
 11
4.46774
 21
83.9759
  0
LINE
  8
0
 10
4.46774
 20
83.9759
 11
4.16676
 21
83.764
  0
LINE
  8
0
 10
4.16676
 20
83.764
 11
3.85576
 21
83.567
  0
LINE
  8
0
 10
3.85576
 20
83.567
 11
3.53546
 21
83.3856
  0
LINE
  8
0
 10
3.53546
 20
83.3856
 11
3.20665
 21
83.2201
  0
LINE
  8
0
 10
3.20665
 20
83.2201
 11
2.87012
 21
83.0709
  0
LINE
  8
0
 10
2.87012
 20
83.0709
 11
2.52667
 21
82.9384
  0
LINE
  8
0
 10
2.52667
 20
82.9384
 11
2.17712
 21
82.8229
  0
LINE
  8
0
 10
2.17712
 20
82.8229
 11
1.82234
 21
82.7248
  0
LINE
  8
0
 10
1.82234
 20
82.7248
 11
1.46317
 21
82.6441
  0
LINE
  8
0
 10
1.46317
 20
82.6441
 11
1.10046
 21
82.5812
  0
LINE
  8
0
 10
1.10046
 20
82.5812
 11
0.735123
 21
82.5361
  0
LINE
  8
0
 10
0.735123
 20
82.5361
 11
0.367996
 21
82.509
  0
LINE
  8
0
 10
0.367996
 20
82.509
 11
0
 21
82.5
  0
LINE
  8
0
 10
0
 20
82.5
 11
-0.367996
 21
82.509
  0
LINE
  8
0
 10
-42.5747
 20
73.974
 11
-42.697
 21
73.983
  0
LINE
  8
0
 10
-42.697
 20
73.983
 11
-42.8188
 21
73.9981
  0
LINE
  8
0
 10
-42.8188
 20
73.9981
 11
-42.9397
 21
74.019
  0
LINE
  8
0
 10
-42.9397
 20
74.019
 11
-43.0594
 21
74.0459
  0
LINE
  8
0
 10
-43.0594
 20
74.0459
 11
-43.1777
 21
74.0786
  0
LINE
  8
0
 10
-43.1777
 20
74.0786
 11
-43.2942
 21
74.1171
  0
LINE
  8
0
 10
-43.2942
 20
74.1171
 11
-43.4087
 21
74.1613
  0
LINE
  8
0
 10
-43.4087
 20
74.1613
 11
-43.5209
 21
74.211
  0
LINE
  8
0
 10
-43.5209
 20
74.211
 11
-43.6305
 21
74.2662
  0
LINE
  8
0
 10
-43.6305
 20
74.2662
 11
-43.7372
 21
74.3267
  0
LINE
  8
0
 10
-43.7372
 20
74.3267
 11
-43.8409
 21
74.3923
  0
LINE
  8
0
 10
-43.8409
 20
74.3923
 11
-43.9412
 21
74.463
  0
LINE
  8
0
 10
-43.9412
 20
74.463
 11
-44.038
 21
74.5385
  0
LINE
  8
0
 10
-44.038
 20
74.5385
 11
-44.1309
 21
74.6186
  0
LINE
  8
0
 10
-44.1309
 20
74.6186
 11
-44.2198
 21
74.7032
  0
LINE
  8
0
 10
-44.2198
 20
74.7032
 11
-44.3044
 21
74.7921
  0
LINE
  8
0
 10
-44.3044
 20
74.7921
 11
-44.3845
 21
74.885
  0
LINE
  8
0
 10
-44.3845
 20
74.885
 11
-44.46
 21
74.9818
  0
LINE
  8
0
 10
-44.46
 20
74.9818
 11
-44.5307
 21
75.0821
  0
LINE
  8
0
 10
-44.5307
 20
75.0821
 11
-44.5963
 21
75.1857
  0
LINE
  8
0
 10
-44.5963
 20
75.1857
 11
-44.6568
 21
75.2925
  0
LINE
  8
0
 10
-44.6568
 20
75.2925
 11
-44.712
 21
75.4021
  0
LINE
  8
0
 10
-44.712
 20
75.4021
 11
-44.7617
 21
75.5143
  0
LINE
  8
0
 10
-44.7617
 20
75.5143
 11
-44.8058
 21
75.6288
  0
LINE
  8
0
 10
-44.8058
 20
75.6288
 11
-44.8443
 21
75.7453
  0
LINE
  8
0
 10
-44.8443
 20
75.7453
 11
-44.8771
 21
75.8635
  0
LINE
  8
0
 10
-44.8771
 20
75.8635
 11
-44.904
 21
75.9833
  0
LINE
  8
0
 10
-44.904
 20
75.9833
 11
-44.9249
 21
76.1042
  0
LINE
  8
0
 10
-44.9249
 20
76.1042
 11
-44.94
 21
76.226
  0
LINE
  8
0
 10
-44.94
 20
76.226
 11
-44.949
 21
76.3483
  0
LINE
  8
0
 10
-44.949
 20
76.3483
 11
-44.952
 21
76.471
  0
LINE
  8
0
 10
-44.952
 20
76.471
 11
-44.949
 21
76.5937
  0
LINE
  8
0
 10
-44.949
 20
76.5937
 11
-44.94
 21
76.716
  0
LINE
  8
0
 10
-44.94
 20
76.716
 11
-44.9249
 21
76.8378
  0
LINE
  8
0
 10
-44.9249
 20
76.8378
 11
-44.904
 21
76.9587
  0
LINE
  8
0
 10
-44.904
 20
76.9587
 11
-44.8771
 21
77.0784
  0
LINE
  8
0
 10
-44.8771
 20
77.0784
 11
-44.8443
 21
77.1967
  0
LINE
  8
0
 10
-44.8443
 20
77.1967
 11
-44.8058
 21
77.3132
  0
LINE
  8
0
 10
-44.8058
 20
77.3132
 11
-44.7617
 21
77.4277
  0
LINE
  8
0
 10
-44.7617
 20
77.4277
 11
-44.712
 21
77.5399
  0
LINE
  8
0
 10
-44.712
 20
77.5399
 11
-44.6568
 21
77.6495
  0
LINE
  8
0
 10
-44.6568
 20
77.6495
 11
-44.5963
 21
77.7563
  0
LINE
  8
0
 10
-44.5963
 20
77.7563
 11
-44.5307
 21
77.8599
  0
LINE
  8
0
 10
-44.5307
 20
77.8599
 11
-44.46
 21
77.9603
  0
LINE
  8
0
 10
-44.46
 20
77.9603
 11
-44.3845
 21
78.057
  0
LINE
  8
0
 10
-44.3845
 20
78.057
 11
-44.3044
 21
78.1499
  0
LINE
  8
0
 10
-44.3044
 20
78.1499
 11
-44.2198
 21
78.2388
  0
LINE
  8
0
 10
-44.2198
 20
78.2388
 11
-44.1309
 21
78.3234
  0
LINE
  8
0
 10
-44.1309
 20
78.3234
 11
-44.038
 21
78.4035
  0
LINE
  8
0
 10
-44.038
 20
78.4035
 11
-43.9412
 21
78.479
  0
LINE
  8
0
 10
-43.9412
 20
78.479
 11
-43.8409
 21
78.5497
  0
LINE
  8
0
 10
-43.8409
 20
78.5497
 11
-43.7372
 21
78.6153
  0
LINE
  8
0
 10
-43.7372
 20
78.6153
 11
-43.6305
 21
78.6758
  0
LINE
  8
0
 10
-43.6305
 20
78.6758
 11
-43.5209
 21
78.731
  0
LINE
  8
0
 10
-43.5209
 20
78.731
 11
-43.4087
 21
78.7807
  0
LINE
  8
0
 10
-43.4087
 20
78.7807
 11
-43.2942
 21
78.8249
  0
LINE
  8
0
 10
-43.2942
 20
78.8249
 11
-43.1777
 21
78.8633
  0
LINE
  8
0
 10
-43.1777
 20
78.8633
 11
-43.0594
 21
78.8961
  0
LINE
  8
0
 10
-43.0594
 20
78.8961
 11
-42.9397
 21
78.923
  0
LINE
  8
0
 10
-42.9397
 20
78.923
 11
-42.8188
 21
78.9439
  0
LINE
  8
0
 10
-42.8188
 20
78.9439
 11
-42.697
 21
78.959
  0
LINE
  8
0
 10
-42.697
 20
78.959
 11
-42.5747
 21
78.968
  0
LINE
  8
0
 10
-42.5747
 20
78.968
 11
-42.452
 21
78.971
  0
LINE
  8
0
 10
-42.452
 20
78.971
 11
-42.3293
 21
78.968
  0
LINE
  8
0
 10
-42.3293
 20
78.968
 11
-42.207
 21
78.959
  0
LINE
  8
0
 10
-42.207
 20
78.959
 11
-42.0852
 21
78.9439
  0
LINE
  8
0
 10
-42.0852
 20
78.9439
 11
-41.9643
 21
78.923
  0
LINE
  8
0
 10
-41.9643
 20
78.923
 11
-41.8445
 21
78.8961
  0
LINE
  8
0
 10
-41.8445
 20
78.8961
 11
-41.7263
 21
78.8633
  0
LINE
  8
0
 10
-41.7263
 20
78.8633
 11
-41.6098
 21
78.8249
  0
LINE
  8
0
 10
-41.6098
 20
78.8249
 11
-41.4953
 21
78.7807
  0
LINE
  8
0
 10
-41.4953
 20
78.7807
 11
-41.3831
 21
78.731
  0
LINE
  8
0
 10
-41.3831
 20
78.731
 11
-41.2735
 21
78.6758
  0
LINE
  8
0
 10
-41.2735
 20
78.6758
 11
-41.1667
 21
78.6153
  0
LINE
  8
0
 10
-41.1667
 20
78.6153
 11
-41.0631
 21
78.5497
  0
LINE
  8
0
 10
-41.0631
 20
78.5497
 11
-40.9628
 21
78.479
  0
LINE
  8
0
 10
-40.9628
 20
78.479
 11
-40.866
 21
78.4035
  0
LINE
  8
0
 10
-40.866
 20
78.4035
 11
-40.7731
 21
78.3234
  0
LINE
  8
0
 10
-40.7731
 20
78.3234
 11
-40.6842
 21
78.2388
  0
LINE
  8
0
 10
-40.6842
 20
78.2388
 11
-40.5996
 21
78.1499
  0
LINE
  8
0
 10
-40.5996
 20
78.1499
 11
-40.5195
 21
78.057
  0
LINE
  8
0
 10
-40.5195
 20
78.057
 11
-40.444
 21
77.9603
  0
LINE
  8
0
 10
-40.444
 20
77.9603
 11
-40.3733
 21
77.8599
  0
LINE
  8
0
 10
-40.3733
 20
77.8599
 11
-40.3077
 21
77.7563
  0
LINE
  8
0
 10
-40.3077
 20
77.7563
 11
-40.2472
 21
77.6495
  0
LINE
  8
0
 10
-40.2472
 20
77.6495
 11
-40.192
 21
77.5399
  0
LINE
  8
0
 10
-40.192
 20
77.5399
 11
-40.1423
 21
77.4277
  0
LINE
  8
0
 10
-40.1423
 20
77.4277
 11
-40.0981
 21
77.3132
  0
LINE
  8
0
 10
-40.0981
 20
77.3132
 11
-40.0596
 21
77.1967
  0
LINE
  8
0
 10
-40.0596
 20
77.1967
 11
-40.0269
 21
77.0784
  0
LINE
  8
0
 10
-40.0269
 20
77.0784
 11
-40
 21
76.9587
  0
LINE
  8
0
 10
-40
 20
76.9587
 11
-39.979
 21
76.8378
  0
LINE
  8
0
 10
-39.979
 20
76.8378
 11
-39.964
 21
76.716
  0
LINE
  8
0
 10
-39.964
 20
76.716
 11
-39.955
 21
76.5937
  0
LINE
  8
0
 10
-39.955
 20
76.5937
 11
-39.952
 21
76.471
  0
LINE
  8
0
 10
-39.952
 20
76.471
 11
-39.955
 21
76.3483
  0
LINE
  8
0
 10
-39.955
 20
76.3483
 11
-39.964
 21
76.226
  0
LINE
  8
0
 10
-39.964
 20
76.226
 11
-39.979
 21
76.1042
  0
LINE
  8
0
 10
-39.979
 20
76.1042
 11
-40
 21
75.9833
  0
LINE
  8
0
 10
-40
 20
75.9833
 11
-40.0269
 21
75.8635
  0
LINE
  8
0
 10
-40.0269
 20
75.8635
 11
-40.0596
 21
75.7453
  0
LINE
  8
0
 10
-40.0596
 20
75.7453
 11
-40.0981
 21
75.6288
  0
LINE
  8
0
 10
-40.0981
 20
75.6288
 11
-40.1423
 21
75.5143
  0
LINE
  8
0
 10
-40.1423
 20
75.5143
 11
-40.192
 21
75.4021
  0
LINE
  8
0
 10
-40.192
 20
75.4021
 11
-40.2472
 21
75.2925
  0
LINE
  8
0
 10
-40.2472
 20
75.2925
 11
-40.3077
 21
75.1857
  0
LINE
  8
0
 10
-40.3077
 20
75.1857
 11
-40.3733
 21
75.0821
  0
LINE
  8
0
 10
-40.3733
 20
75.0821
 11
-40.444
 21
74.9818
  0
LINE
  8
0
 10
-40.444
 20
74.9818
 11
-40.5195
 21
74.885
  0
LINE
  8
0
 10
-40.5195
 20
74.885
 11
-40.5996
 21
74.7921
  0
LINE
  8
0
 10
-40.5996
 20
74.7921
 11
-40.6842
 21
74.7032
  0
LINE
  8
0
 10
-40.6842
 20
74.7032
 11
-40.7731
 21
74.6186
  0
LINE
  8
0
 10
-40.7731
 20
74.6186
 11
-40.866
 21
74.5385
  0
LINE
  8
0
 10
-40.866
 20
74.5385
 11
-40.9628
 21
74.463
  0
LINE
  8
0
 10
-40.9628
 20
74.463
 11
-41.0631
 21
74.3923
  0
LINE
  8
0
 10
-41.0631
 20
74.3923
 11
-41.1667
 21
74.3267
  0
LINE
  8
0
 10
-41.1667
 20
74.3267
 11
-41.2735
 21
74.2662
  0
LINE
  8
0
 10
-41.2735
 20
74.2662
 11
-41.3831
 21
74.211
  0
LINE
  8
0
 10
-41.3831
 20
74.211
 11
-41.4953
 21
74.1613
  0
LINE
  8
0
 10
-41.4953
 20
74.1613
 11
-41.6098
 21
74.1171
  0
LINE
  8
0
 10
-41.6098
 20
74.1171
 11
-41.7263
 21
74.0786
  0
LINE
  8
0
 10
-41.7263
 20
74.0786
 11
-41.8445
 21
74.0459
  0
LINE
  8
0
 10
-41.8445
 20
74.0459
 11
-41.9643
 21
74.019
  0
LINE
  8
0
 10
-41.9643
 20
74.019
 11
-42.0852
 21
73.9981
  0
LINE
  8
0
 10
-42.0852
 20
73.9981
 11
-42.207
 21
73.983
  0
LINE
  8
0
 10
-42.207
 20
73.983
 11
-42.3293
 21
73.974
  0
LINE
  8
0
 10
-42.3293
 20
73.974
 11
-42.452
 21
73.971
  0
LINE
  8
0
 10
-42.452
 20
73.971
 11
-42.5747
 21
73.974
  0
LINE
  8
0
 10
42.3293
 20
73.974
 11
42.207
 21
73.983
  0
LINE
  8
0
 10
42.207
 20
73.983
 11
42.0852
 21
73.9981
  0
LINE
  8
0
 10
42.0852
 20
73.9981
 11
41.9643
 21
74.019
  0
LINE
  8
0
 10
41.9643
 20
74.019
 11
41.8445
 21
74.0459
  0
LINE
  8
0
 10
41.8445
 20
74.0459
 11
41.7263
 21
74.0786
  0
LINE
  8
0
 10
41.7263
 20
74.0786
 11
41.6098
 21
74.1171
  0
LINE
  8
0
 10
41.6098
 20
74.1171
 11
41.4953
 21
74.1613
  0
LINE
  8
0
 10
41.4953
 20
74.1613
 11
41.3831
 21
74.211
  0
LINE
  8
0
 10
41.3831
 20
74.211
 11
41.2735
 21
74.2662
  0
LINE
  8
0
 10
41.2735
 20
74.2662
 11
41.1667
 21
74.3267
  0
LINE
  8
0
 10
41.1667
 20
74.3267
 11
41.0631
 21
74.3923
  0
LINE
  8
0
 10
41.0631
 20
74.3923
 11
40.9628
 21
74.463
  0
LINE
  8
0
 10
40.9628
 20
74.463
 11
40.866
 21
74.5385
  0
LINE
  8
0
 10
40.866
 20
74.5385
 11
40.7731
 21
74.6186
  0
LINE
  8
0
 10
40.7731
 20
74.6186
 11
40.6842
 21
74.7032
  0
LINE
  8
0
 10
40.6842
 20
74.7032
 11
40.5996
 21
74.7921
  0
LINE
  8
0
 10
40.5996
 20
74.7921
 11
40.5195
 21
74.885
  0
LINE
  8
0
 10
40.5195
 20
74.885
 11
40.444
 21
74.9818
  0
LINE
  8
0
 10
40.444
 20
74.9818
 11
40.3733
 21
75.0821
  0
LINE
  8
0
 10
40.3733
 20
75.0821
 11
40.3077
 21
75.1857
  0
LINE
  8
0
 10
40.3077
 20
75.1857
 11
40.2472
 21
75.2925
  0
LINE
  8
0
 10
40.2472
 20
75.2925
 11
40.192
 21
75.4021
  0
LINE
  8
0
 10
40.192
 20
75.4021
 11
40.1423
 21
75.5143
  0
LINE
  8
0
 10
40.1423
 20
75.5143
 11
40.0981
 21
75.6288
  0
LINE
  8
0
 10
40.0981
 20
75.6288
 11
40.0596
 21
75.7453
  0
LINE
  8
0
 10
40.0596
 20
75.7453
 11
40.0269
 21
75.8635
  0
LINE
  8
0
 10
40.0269
 20
75.8635
 11
40
 21
75.9833
  0
LINE
  8
0
 10
40
 20
75.9833
 11
39.979
 21
76.1042
  0
LINE
  8
0
 10
39.979
 20
76.1042
 11
39.964
 21
76.226
  0
LINE
  8
0
 10
39.964
 20
76.226
 11
39.955
 21
76.3483
  0
LINE
  8
0
 10
39.955
 20
76.3483
 11
39.952
 21
76.471
  0
LINE
  8
0
 10
39.952
 20
76.471
 11
39.955
 21
76.5937
  0
LINE
  8
0
 10
39.955
 20
76.5937
 11
39.964
 21
76.716
  0
LINE
  8
0
 10
39.964
 20
76.716
 11
39.979
 21
76.8378
  0
LINE
  8
0
 10
39.979
 20
76.8378
 11
40
 21
76.9587
  0
LINE
  8
0
 10
40
 20
76.9587
 11
40.0269
 21
77.0784
  0
LINE
  8
0
 10
40.0269
 20
77.0784
 11
40.0596
 21
77.1967
  0
LINE
  8
0
 10
40.0596
 20
77.1967
 11
40.0981
 21
77.3132
  0
LINE
  8
0
 10
40.0981
 20
77.3132
 11
40.1423
 21
77.4277
  0
LINE
  8
0
 10
40.1423
 20
77.4277
 11
40.192
 21
77.5399
  0
LINE
  8
0
 10
40.192
 20
77.5399
 11
40.2472
 21
77.6495
  0
LINE
  8
0
 10
40.2472
 20
77.6495
 11
40.3077
 21
77.7563
  0
LINE
  8
0
 10
40.3077
 20
77.7563
 11
40.3733
 21
77.8599
  0
LINE
  8
0
 10
40.3733
 20
77.8599
 11
40.444
 21
77.9603
  0
LINE
  8
0
 10
40.444
 20
77.9603
 11
40.5195
 21
78.057
  0
LINE
  8
0
 10
40.5195
 20
78.057
 11
40.5996
 21
78.1499
  0
LINE
  8
0
 10
40.5996
 20
78.1499
 11
40.6842
 21
78.2388
  0
LINE
  8
0
 10
40.6842
 20
78.2388
 11
40.7731
 21
78.3234
  0
LINE
  8
0
 10
40.7731
 20
78.3234
 11
40.866
 21
78.4035
  0
LINE
  8
0
 10
40.866
 20
78.4035
 11
40.9628
 21
78.479
  0
LINE
  8
0
 10
40.9628
 20
78.479
 11
41.0631
 21
78.5497
  0
LINE
  8
0
 10
41.0631
 20
78.5497
 11
41.1667
 21
78.6153
  0
LINE
  8
0
 10
41.1667
 20
78.6153
 11
41.2735
 21
78.6758
  0
LINE
  8
0
 10
41.2735
 20
78.6758
 11
41.3831
 21
78.731
  0
LINE
  8
0
 10
41.3831
 20
78.731
 11
41.4953
 21
78.7807
  0
LINE
  8
0
 10
41.4953
 20
78.7807
 11
41.6098
 21
78.8249
  0
LINE
  8
0
 10
41.6098
 20
78.8249
 11
41.7263
 21
78.8633
  0
LINE
  8
0
 10
41.7263
 20
78.8633
 11
41.8445
 21
78.8961
  0
LINE
  8
0
 10
41.8445
 20
78.8961
 11
41.9643
 21
78.923
  0
LINE
  8
0
 10
41.9643
 20
78.923
 11
42.0852
 21
78.9439
  0
LINE
  8
0
 10
42.0852
 20
78.9439
 11
42.207
 21
78.959
  0
LINE
  8
0
 10
42.207
 20
78.959
 11
42.3293
 21
78.968
  0
LINE
  8
0
 10
42.3293
 20
78.968
 11
42.452
 21
78.971
  0
LINE
  8
0
 10
42.452
 20
78.971
 11
42.5747
 21
78.968
  0
LINE
  8
0
 10
42.5747
 20
78.968
 11
42.697
 21
78.959
  0
LINE
  8
0
 10
42.697
 20
78.959
 11
42.8188
 21
78.9439
  0
LINE
  8
0
 10
42.8188
 20
78.9439
 11
42.9397
 21
78.923
  0
LINE
  8
0
 10
42.9397
 20
78.923
 11
43.0594
 21
78.8961
  0
LINE
  8
0
 10
43.0594
 20
78.8961
 11
43.1777
 21
78.8633
  0
LINE
  8
0
 10
43.1777
 20
78.8633
 11
43.2942
 21
78.8249
  0
LINE
  8
0
 10
43.2942
 20
78.8249
 11
43.4087
 21
78.7807
  0
LINE
  8
0
 10
43.4087
 20
78.7807
 11
43.5209
 21
78.731
  0
LINE
  8
0
 10
43.5209
 20
78.731
 11
43.6305
 21
78.6758
  0
LINE
  8
0
 10
43.6305
 20
78.6758
 11
43.7372
 21
78.6153
  0
LINE
  8
0
 10
43.7372
 20
78.6153
 11
43.8409
 21
78.5497
  0
LINE
  8
0
 10
43.8409
 20
78.5497
 11
43.9412
 21
78.479
  0
LINE
  8
0
 10
43.9412
 20
78.479
 11
44.038
 21
78.4035
  0
LINE
  8
0
 10
44.038
 20
78.4035
 11
44.1309
 21
78.3234
  0
LINE
  8
0
 10
44.1309
 20
78.3234
 11
44.2198
 21
78.2388
  0
LINE
  8
0
 10
44.2198
 20
78.2388
 11
44.3044
 21
78.1499
  0
LINE
  8
0
 10
44.3044
 20
78.1499
 11
44.3845
 21
78.057
  0
LINE
  8
0
 10
44.3845
 20
78.057
 11
44.46
 21
77.9603
  0
LINE
  8
0
 10
44.46
 20
77.9603
 11
44.5307
 21
77.8599
  0
LINE
  8
0
 10
44.5307
 20
77.8599
 11
44.5963
 21
77.7563
  0
LINE
  8
0
 10
44.5963
 20
77.7563
 11
44.6568
 21
77.6495
  0
LINE
  8
0
 10
44.6568
 20
77.6495
 11
44.712
 21
77.5399
  0
LINE
  8
0
 10
44.712
 20
77.5399
 11
44.7617
 21
77.4277
  0
LINE
  8
0
 10
44.7617
 20
77.4277
 11
44.8058
 21
77.3132
  0
LINE
  8
0
 10
44.8058
 20
77.3132
 11
44.8443
 21
77.1967
  0
LINE
  8
0
 10
44.8443
 20
77.1967
 11
44.8771
 21
77.0784
  0
LINE
  8
0
 10
44.8771
 20
77.0784
 11
44.904
 21
76.9587
  0
LINE
  8
0
 10
44.904
 20
76.9587
 11
44.9249
 21
76.8378
  0
LINE
  8
0
 10
44.9249
 20
76.8378
 11
44.94
 21
76.716
  0
LINE
  8
0
 10
44.94
 20
76.716
 11
44.949
 21
76.5937
  0
LINE
  8
0
 10
44.949
 20
76.5937
 11
44.952
 21
76.471
  0
LINE
  8
0
 10
44.952
 20
76.471
 11
44.949
 21
76.3483
  0
LINE
  8
0
 10
44.949
 20
76.3483
 11
44.94
 21
76.226
  0
LINE
  8
0
 10
44.94
 20
76.226
 11
44.9249
 21
76.1042
  0
LINE
  8
0
 10
44.9249
 20
76.1042
 11
44.904
 21
75.9833
  0
LINE
  8
0
 10
44.904
 20
75.9833
 11
44.8771
 21
75.8635
  0
LINE
  8
0
 10
44.8771
 20
75.8635
 11
44.8443
 21
75.7453
  0
LINE
  8
0
 10
44.8443
 20
75.7453
 11
44.8058
 21
75.6288
  0
LINE
  8
0
 10
44.8058
 20
75.6288
 11
44.7617
 21
75.5143
  0
LINE
  8
0
 10
44.7617
 20
75.5143
 11
44.712
 21
75.4021
  0
LINE
  8
0
 10
44.712
 20
75.4021
 11
44.6568
 21
75.2925
  0
LINE
  8
0
 10
44.6568
 20
75.2925
 11
44.5963
 21
75.1857
  0
LINE
  8
0
 10
44.5963
 20
75.1857
 11
44.5307
 21
75.0821
  0
LINE
  8
0
 10
44.5307
 20
75.0821
 11
44.46
 21
74.9818
  0
LINE
  8
0
 10
44.46
 20
74.9818
 11
44.3845
 21
74.885
  0
LINE
  8
0
 10
44.3845
 20
74.885
 11
44.3044
 21
74.7921
  0
LINE
  8
0
 10
44.3044
 20
74.7921
 11
44.2198
 21
74.7032
  0
LINE
  8
0
 10
44.2198
 20
74.7032
 11
44.1309
 21
74.6186
  0
LINE
  8
0
 10
44.1309
 20
74.6186
 11
44.038
 21
74.5385
  0
LINE
  8
0
 10
44.038
 20
74.5385
 11
43.9412
 21
74.463
  0
LINE
  8
0
 10
43.9412
 20
74.463
 11
43.8409
 21
74.3923
  0
LINE
  8
0
 10
43.8409
 20
74.3923
 11
43.7372
 21
74.3267
  0
LINE
  8
0
 10
43.7372
 20
74.3267
 11
43.6305
 21
74.2662
  0
LINE
  8
0
 10
43.6305
 20
74.2662
 11
43.5209
 21
74.211
  0
LINE
  8
0
 10
43.5209
 20
74.211
 11
43.4087
 21
74.1613
  0
LINE
  8
0
 10
43.4087
 20
74.1613
 11
43.2942
 21
74.1171
  0
LINE
  8
0
 10
43.2942
 20
74.1171
 11
43.1777
 21
74.0786
  0
LINE
  8
0
 10
43.1777
 20
74.0786
 11
43.0594
 21
74.0459
  0
LINE
  8
0
 10
43.0594
 20
74.0459
 11
42.9397
 21
74.019
  0
LINE
  8
0
 10
42.9397
 20
74.019
 11
42.8188
 21
73.9981
  0
LINE
  8
0
 10
42.8188
 20
73.9981
 11
42.697
 21
73.983
  0
LINE
  8
0
 10
42.697
 20
73.983
 11
42.5747
 21
73.974
  0
LINE
  8
0
 10
42.5747
 20
73.974
 11
42.452
 21
73.971
  0
LINE
  8
0
 10
42.452
 20
73.971
 11
42.3293
 21
73.974
  0
LINE
  8
0
 10
5.55103
 20
55.4021
 11
5.5013
 21
55.5143
  0
LINE
  8
0
 10
5.5013
 20
55.5143
 11
5.45714
 21
55.6288
  0
LINE
  8
0
 10
5.45714
 20
55.6288
 11
5.41864
 21
55.7453
  0
LINE
  8
0
 10
5.41864
 20
55.7453
 11
5.38591
 21
55.8635
  0
LINE
  8
0
 10
5.38591
 20
55.8635
 11
5.35902
 21
55.9833
  0
LINE
  8
0
 10
5.35902
 20
55.9833
 11
5.33806
 21
56.1042
  0
LINE
  8
0
 10
5.33806
 20
56.1042
 11
5.32303
 21
56.226
  0
LINE
  8
0
 10
5.32303
 20
56.226
 11
5.31401
 21
56.3483
  0
LINE
  8
0
 10
5.31401
 20
56.3483
 11
5.31099
 21
56.471
  0
LINE
  8
0
 10
5.31099
 20
56.471
 11
5.31401
 21
56.5937
  0
LINE
  8
0
 10
5.31401
 20
56.5937
 11
5.32303
 21
56.716
  0
LINE
  8
0
 10
5.32303
 20
56.716
 11
5.33806
 21
56.8378
  0
LINE
  8
0
 10
5.33806
 20
56.8378
 11
5.35902
 21
56.9587
  0
LINE
  8
0
 10
5.35902
 20
56.9587
 11
5.38591
 21
57.0784
  0
LINE
  8
0
 10
5.38591
 20
57.0784
 11
5.41864
 21
57.1967
  0
LINE
  8
0
 10
5.41864
 20
57.1967
 11
5.45714
 21
57.3132
  0
LINE
  8
0
 10
5.45714
 20
57.3132
 11
5.5013
 21
57.4277
  0
LINE
  8
0
 10
5.5013
 20
57.4277
 11
5.55103
 21
57.5399
  0
LINE
  8
0
 10
5.55103
 20
57.5399
 11
5.60619
 21
57.6495
  0
LINE
  8
0
 10
5.60619
 20
57.6495
 11
5.66667
 21
57.7563
  0
LINE
  8
0
 10
5.66667
 20
57.7563
 11
5.73232
 21
57.8599
  0
LINE
  8
0
 10
5.73232
 20
57.8599
 11
5.80298
 21
57.9602
  0
LINE
  8
0
 10
5.80298
 20
57.9602
 11
5.87846
 21
58.057
  0
LINE
  8
0
 10
5.87846
 20
58.057
 11
5.95862
 21
58.1499
  0
LINE
  8
0
 10
5.95862
 20
58.1499
 11
6.04323
 21
58.2388
  0
LINE
  8
0
 10
6.04323
 20
58.2388
 11
6.1321
 21
58.3234
  0
LINE
  8
0
 10
6.1321
 20
58.3234
 11
6.22501
 21
58.4035
  0
LINE
  8
0
 10
6.22501
 20
58.4035
 11
6.32175
 21
58.479
  0
LINE
  8
0
 10
6.32175
 20
58.479
 11
6.42207
 21
58.5497
  0
LINE
  8
0
 10
6.42207
 20
58.5497
 11
6.52574
 21
58.6153
  0
LINE
  8
0
 10
6.52574
 20
58.6153
 11
6.63251
 21
58.6758
  0
LINE
  8
0
 10
6.63251
 20
58.6758
 11
6.74211
 21
58.731
  0
LINE
  8
0
 10
6.74211
 20
58.731
 11
6.85428
 21
58.7807
  0
LINE
  8
0
 10
6.85428
 20
58.7807
 11
6.96877
 21
58.8249
  0
LINE
  8
0
 10
6.96877
 20
58.8249
 11
7.08528
 21
58.8633
  0
LINE
  8
0
 10
7.08528
 20
58.8633
 11
7.20354
 21
58.8961
  0
LINE
  8
0
 10
7.20354
 20
58.8961
 11
7.32327
 21
58.923
  0
LINE
  8
0
 10
7.32327
 20
58.923
 11
7.44417
 21
58.9439
  0
LINE
  8
0
 10
7.44417
 20
58.9439
 11
7.56595
 21
58.959
  0
LINE
  8
0
 10
7.56595
 20
58.959
 11
7.68832
 21
58.968
  0
LINE
  8
0
 10
7.68832
 20
58.968
 11
7.81099
 21
58.971
  0
LINE
  8
0
 10
7.81099
 20
58.971
 11
7.93365
 21
58.968
  0
LINE
  8
0
 10
7.93365
 20
58.968
 11
8.05603
 21
58.959
  0
LINE
  8
0
 10
8.05603
 20
58.959
 11
8.17783
 21
58.9439
  0
LINE
  8
0
 10
8.17783
 20
58.9439
 11
8.29872
 21
58.923
  0
LINE
  8
0
 10
8.29872
 20
58.923
 11
8.41844
 21
58.8961
  0
LINE
  8
0
 10
8.41844
 20
58.8961
 11
8.5367
 21
58.8633
  0
LINE
  8
0
 10
8.5367
 20
58.8633
 11
8.65321
 21
58.8249
  0
LINE
  8
0
 10
8.65321
 20
58.8249
 11
8.7677
 21
58.7807
  0
LINE
  8
0
 10
8.7677
 20
58.7807
 11
8.87988
 21
58.731
  0
LINE
  8
0
 10
8.87988
 20
58.731
 11
8.98949
 21
58.6758
  0
LINE
  8
0
 10
8.98949
 20
58.6758
 11
9.09625
 21
58.6153
  0
LINE
  8
0
 10
9.09625
 20
58.6153
 11
9.19992
 21
58.5497
  0
LINE
  8
0
 10
9.19992
 20
58.5497
 11
9.30025
 21
58.479
  0
LINE
  8
0
 10
9.30025
 20
58.479
 11
9.39697
 21
58.4035
  0
LINE
  8
0
 10
9.39697
 20
58.4035
 11
9.48988
 21
58.3234
  0
LINE
  8
0
 10
9.48988
 20
58.3234
 11
9.57877
 21
58.2388
  0
LINE
  8
0
 10
9.57877
 20
58.2388
 11
9.66338
 21
58.1499
  0
LINE
  8
0
 10
9.66338
 20
58.1499
 11
9.74352
 21
58.057
  0
LINE
  8
0
 10
9.74352
 20
58.057
 11
9.81902
 21
57.9602
  0
LINE
  8
0
 10
9.81902
 20
57.9602
 11
9.88966
 21
57.8599
  0
LINE
  8
0
 10
9.88966
 20
57.8599
 11
9.95531
 21
57.7563
  0
LINE
  8
0
 10
9.95531
 20
57.7563
 11
10.0158
 21
57.6495
  0
LINE
  8
0
 10
10.0158
 20
57.6495
 11
10.071
 21
57.5399
  0
LINE
  8
0
 10
10.071
 20
57.5399
 11
10.1207
 21
57.4277
  0
LINE
  8
0
 10
10.1207
 20
57.4277
 11
10.1649
 21
57.3132
  0
LINE
  8
0
 10
10.1649
 20
57.3132
 11
10.2033
 21
57.1967
  0
LINE
  8
0
 10
10.2033
 20
57.1967
 11
10.2361
 21
57.0784
  0
LINE
  8
0
 10
10.2361
 20
57.0784
 11
10.263
 21
56.9587
  0
LINE
  8
0
 10
10.263
 20
56.9587
 11
10.2839
 21
56.8378
  0
LINE
  8
0
 10
10.2839
 20
56.8378
 11
10.299
 21
56.716
  0
LINE
  8
0
 10
10.299
 20
56.716
 11
10.308
 21
56.5937
  0
LINE
  8
0
 10
10.308
 20
56.5937
 11
10.311
 21
56.471
  0
LINE
  8
0
 10
10.311
 20
56.471
 11
10.308
 21
56.3483
  0
LINE
  8
0
 10
10.308
 20
56.3483
 11
10.299
 21
56.226
  0
LINE
  8
0
 10
10.299
 20
56.226
 11
10.2839
 21
56.1042
  0
LINE
  8
0
 10
10.2839
 20
56.1042
 11
10.263
 21
55.9833
  0
LINE
  8
0
 10
10.263
 20
55.9833
 11
10.2361
 21
55.8635
  0
LINE
  8
0
 10
10.2361
 20
55.8635
 11
10.2033
 21
55.7453
  0
LINE
  8
0
 10
10.2033
 20
55.7453
 11
10.1649
 21
55.6288
  0
LINE
  8
0
 10
10.1649
 20
55.6288
 11
10.1207
 21
55.5143
  0
LINE
  8
0
 10
10.1207
 20
55.5143
 11
10.071
 21
55.4021
  0
LINE
  8
0
 10
10.071
 20
55.4021
 11
10.0158
 21
55.2925
  0
LINE
  8
0
 10
10.0158
 20
55.2925
 11
9.95531
 21
55.1857
  0
LINE
  8
0
 10
9.95531
 20
55.1857
 11
9.88966
 21
55.0821
  0
LINE
  8
0
 10
9.88966
 20
55.0821
 11
9.81902
 21
54.9818
  0
LINE
  8
0
 10
9.81902
 20
54.9818
 11
9.74352
 21
54.885
  0
LINE
  8
0
 10
9.74352
 20
54.885
 11
9.66338
 21
54.7921
  0
LINE
  8
0
 10
9.66338
 20
54.7921
 11
9.57877
 21
54.7032
  0
LINE
  8
0
 10
9.57877
 20
54.7032
 11
9.48988
 21
54.6186
  0
LINE
  8
0
 10
9.48988
 20
54.6186
 11
9.39697
 21
54.5385
  0
LINE
  8
0
 10
9.39697
 20
54.5385
 11
9.30025
 21
54.463
  0
LINE
  8
0
 10
9.30025
 20
54.463
 11
9.19992
 21
54.3923
  0
LINE
  8
0
 10
9.19992
 20
54.3923
 11
9.09625
 21
54.3267
  0
LINE
  8
0
 10
9.09625
 20
54.3267
 11
8.98949
 21
54.2662
  0
LINE
  8
0
 10
8.98949
 20
54.2662
 11
8.87988
 21
54.211
  0
LINE
  8
0
 10
8.87988
 20
54.211
 11
8.7677
 21
54.1613
  0
LINE
  8
0
 10
8.7677
 20
54.1613
 11
8.65321
 21
54.1171
  0
LINE
  8
0
 10
8.65321
 20
54.1171
 11
8.5367
 21
54.0786
  0
LINE
  8
0
 10
8.5367
 20
54.0786
 11
8.41844
 21
54.0459
  0
LINE
  8
0
 10
8.41844
 20
54.0459
 11
8.29872
 21
54.019
  0
LINE
  8
0
 10
8.29872
 20
54.019
 11
8.17783
 21
53.998
  0
LINE
  8
0
 10
8.17783
 20
53.998
 11
8.05603
 21
53.983
  0
LINE
  8
0
 10
8.05603
 20
53.983
 11
7.93365
 21
53.974
  0
LINE
  8
0
 10
7.93365
 20
53.974
 11
7.81099
 21
53.971
  0
LINE
  8
0
 10
7.81099
 20
53.971
 11
7.68832
 21
53.974
  0
LINE
  8
0
 10
7.68832
 20
53.974
 11
7.56595
 21
53.983
  0
LINE
  8
0
 10
7.56595
 20
53.983
 11
7.44417
 21
53.998
  0
LINE
  8
0
 10
7.44417
 20
53.998
 11
7.32327
 21
54.019
  0
LINE
  8
0
 10
7.32327
 20
54.019
 11
7.20354
 21
54.0459
  0
LINE
  8
0
 10
7.20354
 20
54.0459
 11
7.08528
 21
54.0786
  0
LINE
  8
0
 10
7.08528
 20
54.0786
 11
6.96877
 21
54.1171
  0
LINE
  8
0
 10
6.96877
 20
54.1171
 11
6.85428
 21
54.1613
  0
LINE
  8
0
 10
6.85428
 20
54.1613
 11
6.74211
 21
54.211
  0
LINE
  8
0
 10
6.74211
 20
54.211
 11
6.63251
 21
54.2662
  0
LINE
  8
0
 10
6.63251
 20
54.2662
 11
6.52574
 21
54.3267
  0
LINE
  8
0
 10
6.52574
 20
54.3267
 11
6.42207
 21
54.3923
  0
LINE
  8
0
 10
6.42207
 20
54.3923
 11
6.32175
 21
54.463
  0
LINE
  8
0
 10
6.32175
 20
54.463
 11
6.22501
 21
54.5385
  0
LINE
  8
0
 10
6.22501
 20
54.5385
 11
6.1321
 21
54.6186
  0
LINE
  8
0
 10
6.1321
 20
54.6186
 11
6.04323
 21
54.7032
  0
LINE
  8
0
 10
6.04323
 20
54.7032
 11
5.95862
 21
54.7921
  0
LINE
  8
0
 10
5.95862
 20
54.7921
 11
5.87846
 21
54.885
  0
LINE
  8
0
 10
5.87846
 20
54.885
 11
5.80298
 21
54.9818
  0
LINE
  8
0
 10
5.80298
 20
54.9818
 11
5.73232
 21
55.0821
  0
LINE
  8
0
 10
5.73232
 20
55.0821
 11
5.66667
 21
55.1857
  0
LINE
  8
0
 10
5.66667
 20
55.1857
 11
5.60619
 21
55.2925
  0
LINE
  8
0
 10
5.60619
 20
55.2925
 11
5.55103
 21
55.4021
  0
LINE
  8
0
 10
-140.135
 20
52.2533
 11
-140.27
 21
52.2632
  0
LINE
  8
0
 10
-140.27
 20
52.2632
 11
-140.404
 21
52.2798
  0
LINE
  8
0
 10
-140.404
 20
52.2798
 11
-140.536
 21
52.3028
  0
LINE
  8
0
 10
-140.536
 20
52.3028
 11
-140.668
 21
52.3324
  0
LINE
  8
0
 10
-140.668
 20
52.3324
 11
-140.798
 21
52.3684
  0
LINE
  8
0
 10
-140.798
 20
52.3684
 11
-140.926
 21
52.4108
  0
LINE
  8
0
 10
-140.926
 20
52.4108
 11
-141.052
 21
52.4593
  0
LINE
  8
0
 10
-141.052
 20
52.4593
 11
-141.176
 21
52.514
  0
LINE
  8
0
 10
-141.176
 20
52.514
 11
-141.296
 21
52.5747
  0
LINE
  8
0
 10
-141.296
 20
52.5747
 11
-141.414
 21
52.6412
  0
LINE
  8
0
 10
-141.414
 20
52.6412
 11
-141.528
 21
52.7135
  0
LINE
  8
0
 10
-141.528
 20
52.7135
 11
-141.638
 21
52.7912
  0
LINE
  8
0
 10
-141.638
 20
52.7912
 11
-141.745
 21
52.8742
  0
LINE
  8
0
 10
-141.745
 20
52.8742
 11
-141.847
 21
52.9624
  0
LINE
  8
0
 10
-141.847
 20
52.9624
 11
-141.945
 21
53.0555
  0
LINE
  8
0
 10
-141.945
 20
53.0555
 11
-142.038
 21
53.1532
  0
LINE
  8
0
 10
-142.038
 20
53.1532
 11
-142.126
 21
53.2554
  0
LINE
  8
0
 10
-142.126
 20
53.2554
 11
-142.209
 21
53.3618
  0
LINE
  8
0
 10
-142.209
 20
53.3618
 11
-142.287
 21
53.4722
  0
LINE
  8
0
 10
-142.287
 20
53.4722
 11
-142.359
 21
53.5862
  0
LINE
  8
0
 10
-142.359
 20
53.5862
 11
-142.425
 21
53.7037
  0
LINE
  8
0
 10
-142.425
 20
53.7037
 11
-142.486
 21
53.8242
  0
LINE
  8
0
 10
-142.486
 20
53.8242
 11
-142.541
 21
53.9476
  0
LINE
  8
0
 10
-142.541
 20
53.9476
 11
-142.589
 21
54.0735
  0
LINE
  8
0
 10
-142.589
 20
54.0735
 11
-142.632
 21
54.2017
  0
LINE
  8
0
 10
-142.632
 20
54.2017
 11
-142.668
 21
54.3318
  0
LINE
  8
0
 10
-142.668
 20
54.3318
 11
-142.697
 21
54.4635
  0
LINE
  8
0
 10
-142.697
 20
54.4635
 11
-142.72
 21
54.5965
  0
LINE
  8
0
 10
-142.72
 20
54.5965
 11
-142.737
 21
54.7305
  0
LINE
  8
0
 10
-142.737
 20
54.7305
 11
-142.747
 21
54.8651
  0
LINE
  8
0
 10
-142.747
 20
54.8651
 11
-142.75
 21
55
  0
LINE
  8
0
 10
-142.75
 20
55
 11
-142.747
 21
55.1349
  0
LINE
  8
0
 10
-142.747
 20
55.1349
 11
-142.737
 21
55.2695
  0
LINE
  8
0
 10
-142.737
 20
55.2695
 11
-142.72
 21
55.4035
  0
LINE
  8
0
 10
-142.72
 20
55.4035
 11
-142.697
 21
55.5365
  0
LINE
  8
0
 10
-142.697
 20
55.5365
 11
-142.668
 21
55.6682
  0
LINE
  8
0
 10
-142.668
 20
55.6682
 11
-142.632
 21
55.7983
  0
LINE
  8
0
 10
-142.632
 20
55.7983
 11
-142.589
 21
55.9264
  0
LINE
  8
0
 10
-142.589
 20
55.9264
 11
-142.541
 21
56.0524
  0
LINE
  8
0
 10
-142.541
 20
56.0524
 11
-142.486
 21
56.1758
  0
LINE
  8
0
 10
-142.486
 20
56.1758
 11
-142.425
 21
56.2963
  0
LINE
  8
0
 10
-142.425
 20
56.2963
 11
-142.359
 21
56.4138
  0
LINE
  8
0
 10
-142.359
 20
56.4138
 11
-142.287
 21
56.5278
  0
LINE
  8
0
 10
-142.287
 20
56.5278
 11
-142.209
 21
56.6382
  0
LINE
  8
0
 10
-142.209
 20
56.6382
 11
-142.126
 21
56.7446
  0
LINE
  8
0
 10
-142.126
 20
56.7446
 11
-142.038
 21
56.8468
  0
LINE
  8
0
 10
-142.038
 20
56.8468
 11
-141.945
 21
56.9445
  0
LINE
  8
0
 10
-141.945
 20
56.9445
 11
-141.847
 21
57.0376
  0
LINE
  8
0
 10
-141.847
 20
57.0376
 11
-141.745
 21
57.1258
  0
LINE
  8
0
 10
-141.745
 20
57.1258
 11
-141.638
 21
57.2088
  0
LINE
  8
0
 10
-141.638
 20
57.2088
 11
-141.528
 21
57.2865
  0
LINE
  8
0
 10
-141.528
 20
57.2865
 11
-141.414
 21
57.3587
  0
LINE
  8
0
 10
-141.414
 20
57.3587
 11
-141.296
 21
57.4253
  0
LINE
  8
0
 10
-141.296
 20
57.4253
 11
-141.176
 21
57.486
  0
LINE
  8
0
 10
-141.176
 20
57.486
 11
-141.052
 21
57.5407
  0
LINE
  8
0
 10
-141.052
 20
57.5407
 11
-140.926
 21
57.5892
  0
LINE
  8
0
 10
-140.926
 20
57.5892
 11
-140.798
 21
57.6316
  0
LINE
  8
0
 10
-140.798
 20
57.6316
 11
-140.668
 21
57.6676
  0
LINE
  8
0
 10
-140.668
 20
57.6676
 11
-140.536
 21
57.6972
  0
LINE
  8
0
 10
-140.536
 20
57.6972
 11
-140.404
 21
57.7202
  0
LINE
  8
0
 10
-140.404
 20
57.7202
 11
-140.27
 21
57.7368
  0
LINE
  8
0
 10
-140.27
 20
57.7368
 11
-140.135
 21
57.7467
  0
LINE
  8
0
 10
-140.135
 20
57.7467
 11
-140
 21
57.75
  0
LINE
  8
0
 10
-140
 20
57.75
 11
-139.865
 21
57.7467
  0
LINE
  8
0
 10
-139.865
 20
57.7467
 11
-139.73
 21
57.7368
  0
LINE
  8
0
 10
-139.73
 20
57.7368
 11
-139.596
 21
57.7202
  0
LINE
  8
0
 10
-139.596
 20
57.7202
 11
-139.464
 21
57.6972
  0
LINE
  8
0
 10
-139.464
 20
57.6972
 11
-139.332
 21
57.6676
  0
LINE
  8
0
 10
-139.332
 20
57.6676
 11
-139.202
 21
57.6316
  0
LINE
  8
0
 10
-139.202
 20
57.6316
 11
-139.074
 21
57.5892
  0
LINE
  8
0
 10
-139.074
 20
57.5892
 11
-138.948
 21
57.5407
  0
LINE
  8
0
 10
-138.948
 20
57.5407
 11
-138.824
 21
57.486
  0
LINE
  8
0
 10
-138.824
 20
57.486
 11
-138.704
 21
57.4253
  0
LINE
  8
0
 10
-138.704
 20
57.4253
 11
-138.586
 21
57.3587
  0
LINE
  8
0
 10
-138.586
 20
57.3587
 11
-138.472
 21
57.2865
  0
LINE
  8
0
 10
-138.472
 20
57.2865
 11
-138.362
 21
57.2088
  0
LINE
  8
0
 10
-138.362
 20
57.2088
 11
-138.255
 21
57.1258
  0
LINE
  8
0
 10
-138.255
 20
57.1258
 11
-138.153
 21
57.0376
  0
LINE
  8
0
 10
-138.153
 20
57.0376
 11
-138.055
 21
56.9445
  0
LINE
  8
0
 10
-138.055
 20
56.9445
 11
-137.962
 21
56.8468
  0
LINE
  8
0
 10
-137.962
 20
56.8468
 11
-137.874
 21
56.7446
  0
LINE
  8
0
 10
-137.874
 20
56.7446
 11
-137.791
 21
56.6382
  0
LINE
  8
0
 10
-137.791
 20
56.6382
 11
-137.713
 21
56.5278
  0
LINE
  8
0
 10
-137.713
 20
56.5278
 11
-137.641
 21
56.4138
  0
LINE
  8
0
 10
-137.641
 20
56.4138
 11
-137.575
 21
56.2963
  0
LINE
  8
0
 10
-137.575
 20
56.2963
 11
-137.514
 21
56.1758
  0
LINE
  8
0
 10
-137.514
 20
56.1758
 11
-137.459
 21
56.0524
  0
LINE
  8
0
 10
-137.459
 20
56.0524
 11
-137.411
 21
55.9264
  0
LINE
  8
0
 10
-137.411
 20
55.9264
 11
-137.368
 21
55.7983
  0
LINE
  8
0
 10
-137.368
 20
55.7983
 11
-137.332
 21
55.6682
  0
LINE
  8
0
 10
-137.332
 20
55.6682
 11
-137.303
 21
55.5365
  0
LINE
  8
0
 10
-137.303
 20
55.5365
 11
-137.28
 21
55.4035
  0
LINE
  8
0
 10
-137.28
 20
55.4035
 11
-137.263
 21
55.2695
  0
LINE
  8
0
 10
-137.263
 20
55.2695
 11
-137.253
 21
55.1349
  0
LINE
  8
0
 10
-137.253
 20
55.1349
 11
-137.25
 21
55
  0
LINE
  8
0
 10
-137.25
 20
55
 11
-137.253
 21
54.8651
  0
LINE
  8
0
 10
-137.253
 20
54.8651
 11
-137.263
 21
54.7305
  0
LINE
  8
0
 10
-137.263
 20
54.7305
 11
-137.28
 21
54.5965
  0
LINE
  8
0
 10
-137.28
 20
54.5965
 11
-137.303
 21
54.4635
  0
LINE
  8
0
 10
-137.303
 20
54.4635
 11
-137.332
 21
54.3318
  0
LINE
  8
0
 10
-137.332
 20
54.3318
 11
-137.368
 21
54.2017
  0
LINE
  8
0
 10
-137.368
 20
54.2017
 11
-137.411
 21
54.0735
  0
LINE
  8
0
 10
-137.411
 20
54.0735
 11
-137.459
 21
53.9476
  0
LINE
  8
0
 10
-137.459
 20
53.9476
 11
-137.514
 21
53.8242
  0
LINE
  8
0
 10
-137.514
 20
53.8242
 11
-137.575
 21
53.7037
  0
LINE
  8
0
 10
-137.575
 20
53.7037
 11
-137.641
 21
53.5862
  0
LINE
  8
0
 10
-137.641
 20
53.5862
 11
-137.713
 21
53.4722
  0
LINE
  8
0
 10
-137.713
 20
53.4722
 11
-137.791
 21
53.3618
  0
LINE
  8
0
 10
-137.791
 20
53.3618
 11
-137.874
 21
53.2554
  0
LINE
  8
0
 10
-137.874
 20
53.2554
 11
-137.962
 21
53.1532
  0
LINE
  8
0
 10
-137.962
 20
53.1532
 11
-138.055
 21
53.0555
  0
LINE
  8
0
 10
-138.055
 20
53.0555
 11
-138.153
 21
52.9624
  0
LINE
  8
0
 10
-138.153
 20
52.9624
 11
-138.255
 21
52.8742
  0
LINE
  8
0
 10
-138.255
 20
52.8742
 11
-138.362
 21
52.7912
  0
LINE
  8
0
 10
-138.362
 20
52.7912
 11
-138.472
 21
52.7135
  0
LINE
  8
0
 10
-138.472
 20
52.7135
 11
-138.586
 21
52.6412
  0
LINE
  8
0
 10
-138.586
 20
52.6412
 11
-138.704
 21
52.5747
  0
LINE
  8
0
 10
-138.704
 20
52.5747
 11
-138.824
 21
52.514
  0
LINE
  8
0
 10
-138.824
 20
52.514
 11
-138.948
 21
52.4593
  0
LINE
  8
0
 10
-138.948
 20
52.4593
 11
-139.074
 21
52.4108
  0
LINE
  8
0
 10
-139.074
 20
52.4108
 11
-139.202
 21
52.3684
  0
LINE
  8
0
 10
-139.202
 20
52.3684
 11
-139.332
 21
52.3324
  0
LINE
  8
0
 10
-139.332
 20
52.3324
 11
-139.464
 21
52.3028
  0
LINE
  8
0
 10
-139.464
 20
52.3028
 11
-139.596
 21
52.2798
  0
LINE
  8
0
 10
-139.596
 20
52.2798
 11
-139.73
 21
52.2632
  0
LINE
  8
0
 10
-139.73
 20
52.2632
 11
-139.865
 21
52.2533
  0
LINE
  8
0
 10
-139.865
 20
52.2533
 11
-140
 21
52.25
  0
LINE
  8
0
 10
-140
 20
52.25
 11
-140.135
 21
52.2533
  0
LINE
  8
0
 10
139.865
 20
52.2533
 11
139.73
 21
52.2632
  0
LINE
  8
0
 10
139.73
 20
52.2632
 11
139.596
 21
52.2798
  0
LINE
  8
0
 10
139.596
 20
52.2798
 11
139.464
 21
52.3028
  0
LINE
  8
0
 10
139.464
 20
52.3028
 11
139.332
 21
52.3324
  0
LINE
  8
0
 10
139.332
 20
52.3324
 11
139.202
 21
52.3684
  0
LINE
  8
0
 10
139.202
 20
52.3684
 11
139.074
 21
52.4108
  0
LINE
  8
0
 10
139.074
 20
52.4108
 11
138.948
 21
52.4593
  0
LINE
  8
0
 10
138.948
 20
52.4593
 11
138.824
 21
52.514
  0
LINE
  8
0
 10
138.824
 20
52.514
 11
138.704
 21
52.5747
  0
LINE
  8
0
 10
138.704
 20
52.5747
 11
138.586
 21
52.6412
  0
LINE
  8
0
 10
138.586
 20
52.6412
 11
138.472
 21
52.7135
  0
LINE
  8
0
 10
138.472
 20
52.7135
 11
138.362
 21
52.7912
  0
LINE
  8
0
 10
138.362
 20
52.7912
 11
138.255
 21
52.8742
  0
LINE
  8
0
 10
138.255
 20
52.8742
 11
138.153
 21
52.9624
  0
LINE
  8
0
 10
138.153
 20
52.9624
 11
138.055
 21
53.0555
  0
LINE
  8
0
 10
138.055
 20
53.0555
 11
137.962
 21
53.1532
  0
LINE
  8
0
 10
137.962
 20
53.1532
 11
137.874
 21
53.2554
  0
LINE
  8
0
 10
137.874
 20
53.2554
 11
137.791
 21
53.3618
  0
LINE
  8
0
 10
137.791
 20
53.3618
 11
137.713
 21
53.4722
  0
LINE
  8
0
 10
137.713
 20
53.4722
 11
137.641
 21
53.5862
  0
LINE
  8
0
 10
137.641
 20
53.5862
 11
137.575
 21
53.7037
  0
LINE
  8
0
 10
137.575
 20
53.7037
 11
137.514
 21
53.8242
  0
LINE
  8
0
 10
137.514
 20
53.8242
 11
137.459
 21
53.9476
  0
LINE
  8
0
 10
137.459
 20
53.9476
 11
137.411
 21
54.0735
  0
LINE
  8
0
 10
137.411
 20
54.0735
 11
137.368
 21
54.2017
  0
LINE
  8
0
 10
137.368
 20
54.2017
 11
137.332
 21
54.3318
  0
LINE
  8
0
 10
137.332
 20
54.3318
 11
137.303
 21
54.4635
  0
LINE
  8
0
 10
137.303
 20
54.4635
 11
137.28
 21
54.5965
  0
LINE
  8
0
 10
137.28
 20
54.5965
 11
137.263
 21
54.7305
  0
LINE
  8
0
 10
137.263
 20
54.7305
 11
137.253
 21
54.8651
  0
LINE
  8
0
 10
137.253
 20
54.8651
 11
137.25
 21
55
  0
LINE
  8
0
 10
137.25
 20
55
 11
137.253
 21
55.1349
  0
LINE
  8
0
 10
137.253
 20
55.1349
 11
137.263
 21
55.2695
  0
LINE
  8
0
 10
137.263
 20
55.2695
 11
137.28
 21
55.4035
  0
LINE
  8
0
 10
137.28
 20
55.4035
 11
137.303
 21
55.5365
  0
LINE
  8
0
 10
137.303
 20
55.5365
 11
137.332
 21
55.6682
  0
LINE
  8
0
 10
137.332
 20
55.6682
 11
137.368
 21
55.7983
  0
LINE
  8
0
 10
137.368
 20
55.7983
 11
137.411
 21
55.9264
  0
LINE
  8
0
 10
137.411
 20
55.9264
 11
137.459
 21
56.0524
  0
LINE
  8
0
 10
137.459
 20
56.0524
 11
137.514
 21
56.1758
  0
LINE
  8
0
 10
137.514
 20
56.1758
 11
137.575
 21
56.2963
  0
LINE
  8
0
 10
137.575
 20
56.2963
 11
137.641
 21
56.4138
  0
LINE
  8
0
 10
137.641
 20
56.4138
 11
137.713
 21
56.5278
  0
LINE
  8
0
 10
137.713
 20
56.5278
 11
137.791
 21
56.6382
  0
LINE
  8
0
 10
137.791
 20
56.6382
 11
137.874
 21
56.7446
  0
LINE
  8
0
 10
137.874
 20
56.7446
 11
137.962
 21
56.8468
  0
LINE
  8
0
 10
137.962
 20
56.8468
 11
138.055
 21
56.9445
  0
LINE
  8
0
 10
138.055
 20
56.9445
 11
138.153
 21
57.0376
  0
LINE
  8
0
 10
138.153
 20
57.0376
 11
138.255
 21
57.1258
  0
LINE
  8
0
 10
138.255
 20
57.1258
 11
138.362
 21
57.2088
  0
LINE
  8
0
 10
138.362
 20
57.2088
 11
138.472
 21
57.2865
  0
LINE
  8
0
 10
138.472
 20
57.2865
 11
138.586
 21
57.3587
  0
LINE
  8
0
 10
138.586
 20
57.3587
 11
138.704
 21
57.4253
  0
LINE
  8
0
 10
138.704
 20
57.4253
 11
138.824
 21
57.486
  0
LINE
  8
0
 10
138.824
 20
57.486
 11
138.948
 21
57.5407
  0
LINE
  8
0
 10
138.948
 20
57.5407
 11
139.074
 21
57.5892
  0
LINE
  8
0
 10
139.074
 20
57.5892
 11
139.202
 21
57.6316
  0
LINE
  8
0
 10
139.202
 20
57.6316
 11
139.332
 21
57.6676
  0
LINE
  8
0
 10
139.332
 20
57.6676
 11
139.464
 21
57.6972
  0
LINE
  8
0
 10
139.464
 20
57.6972
 11
139.596
 21
57.7202
  0
LINE
  8
0
 10
139.596
 20
57.7202
 11
139.73
 21
57.7368
  0
LINE
  8
0
 10
139.73
 20
57.7368
 11
139.865
 21
57.7467
  0
LINE
  8
0
 10
139.865
 20
57.7467
 11
140
 21
57.75
  0
LINE
  8
0
 10
140
 20
57.75
 11
140.135
 21
57.7467
  0
LINE
  8
0
 10
140.135
 20
57.7467
 11
140.27
 21
57.7368
  0
LINE
  8
0
 10
140.27
 20
57.7368
 11
140.404
 21
57.7202
  0
LINE
  8
0
 10
140.404
 20
57.7202
 11
140.536
 21
57.6972
  0
LINE
  8
0
 10
140.536
 20
57.6972
 11
140.668
 21
57.6676
  0
LINE
  8
0
 10
140.668
 20
57.6676
 11
140.798
 21
57.6316
  0
LINE
  8
0
 10
140.798
 20
57.6316
 11
140.926
 21
57.5892
  0
LINE
  8
0
 10
140.926
 20
57.5892
 11
141.052
 21
57.5407
  0
LINE
  8
0
 10
141.052
 20
57.5407
 11
141.176
 21
57.486
  0
LINE
  8
0
 10
141.176
 20
57.486
 11
141.296
 21
57.4253
  0
LINE
  8
0
 10
141.296
 20
57.4253
 11
141.414
 21
57.3587
  0
LINE
  8
0
 10
141.414
 20
57.3587
 11
141.528
 21
57.2865
  0
LINE
  8
0
 10
141.528
 20
57.2865
 11
141.638
 21
57.2088
  0
LINE
  8
0
 10
141.638
 20
57.2088
 11
141.745
 21
57.1258
  0
LINE
  8
0
 10
141.745
 20
57.1258
 11
141.847
 21
57.0376
  0
LINE
  8
0
 10
141.847
 20
57.0376
 11
141.945
 21
56.9445
  0
LINE
  8
0
 10
141.945
 20
56.9445
 11
142.038
 21
56.8468
  0
LINE
  8
0
 10
142.038
 20
56.8468
 11
142.126
 21
56.7446
  0
LINE
  8
0
 10
142.126
 20
56.7446
 11
142.209
 21
56.6382
  0
LINE
  8
0
 10
142.209
 20
56.6382
 11
142.287
 21
56.5278
  0
LINE
  8
0
 10
142.287
 20
56.5278
 11
142.359
 21
56.4138
  0
LINE
  8
0
 10
142.359
 20
56.4138
 11
142.425
 21
56.2963
  0
LINE
  8
0
 10
142.425
 20
56.2963
 11
142.486
 21
56.1758
  0
LINE
  8
0
 10
142.486
 20
56.1758
 11
142.541
 21
56.0524
  0
LINE
  8
0
 10
142.541
 20
56.0524
 11
142.589
 21
55.9264
  0
LINE
  8
0
 10
142.589
 20
55.9264
 11
142.632
 21
55.7983
  0
LINE
  8
0
 10
142.632
 20
55.7983
 11
142.668
 21
55.6682
  0
LINE
  8
0
 10
142.668
 20
55.6682
 11
142.697
 21
55.5365
  0
LINE
  8
0
 10
142.697
 20
55.5365
 11
142.72
 21
55.4035
  0
LINE
  8
0
 10
142.72
 20
55.4035
 11
142.737
 21
55.2695
  0
LINE
  8
0
 10
142.737
 20
55.2695
 11
142.747
 21
55.1349
  0
LINE
  8
0
 10
142.747
 20
55.1349
 11
142.75
 21
55
  0
LINE
  8
0
 10
142.75
 20
55
 11
142.747
 21
54.8651
  0
LINE
  8
0
 10
142.747
 20
54.8651
 11
142.737
 21
54.7305
  0
LINE
  8
0
 10
142.737
 20
54.7305
 11
142.72
 21
54.5965
  0
LINE
  8
0
 10
142.72
 20
54.5965
 11
142.697
 21
54.4635
  0
LINE
  8
0
 10
142.697
 20
54.4635
 11
142.668
 21
54.3318
  0
LINE
  8
0
 10
142.668
 20
54.3318
 11
142.632
 21
54.2017
  0
LINE
  8
0
 10
142.632
 20
54.2017
 11
142.589
 21
54.0735
  0
LINE
  8
0
 10
142.589
 20
54.0735
 11
142.541
 21
53.9476
  0
LINE
  8
0
 10
142.541
 20
53.9476
 11
142.486
 21
53.8242
  0
LINE
  8
0
 10
142.486
 20
53.8242
 11
142.425
 21
53.7037
  0
LINE
  8
0
 10
142.425
 20
53.7037
 11
142.359
 21
53.5862
  0
LINE
  8
0
 10
142.359
 20
53.5862
 11
142.287
 21
53.4722
  0
LINE
  8
0
 10
142.287
 20
53.4722
 11
142.209
 21
53.3618
  0
LINE
  8
0
 10
142.209
 20
53.3618
 11
142.126
 21
53.2554
  0
LINE
  8
0
 10
142.126
 20
53.2554
 11
142.038
 21
53.1532
  0
LINE
  8
0
 10
142.038
 20
53.1532
 11
141.945
 21
53.0555
  0
LINE
  8
0
 10
141.945
 20
53.0555
 11
141.847
 21
52.9624
  0
LINE
  8
0
 10
141.847
 20
52.9624
 11
141.745
 21
52.8742
  0
LINE
  8
0
 10
141.745
 20
52.8742
 11
141.638
 21
52.7912
  0
LINE
  8
0
 10
141.638
 20
52.7912
 11
141.528
 21
52.7135
  0
LINE
  8
0
 10
141.528
 20
52.7135
 11
141.414
 21
52.6412
  0
LINE
  8
0
 10
141.414
 20
52.6412
 11
141.296
 21
52.5747
  0
LINE
  8
0
 10
141.296
 20
52.5747
 11
141.176
 21
52.514
  0
LINE
  8
0
 10
141.176
 20
52.514
 11
141.052
 21
52.4593
  0
LINE
  8
0
 10
141.052
 20
52.4593
 11
140.926
 21
52.4108
  0
LINE
  8
0
 10
140.926
 20
52.4108
 11
140.798
 21
52.3684
  0
LINE
  8
0
 10
140.798
 20
52.3684
 11
140.668
 21
52.3324
  0
LINE
  8
0
 10
140.668
 20
52.3324
 11
140.536
 21
52.3028
  0
LINE
  8
0
 10
140.536
 20
52.3028
 11
140.404
 21
52.2798
  0
LINE
  8
0
 10
140.404
 20
52.2798
 11
140.27
 21
52.2632
  0
LINE
  8
0
 10
140.27
 20
52.2632
 11
140.135
 21
52.2533
  0
LINE
  8
0
 10
140.135
 20
52.2533
 11
140
 21
52.25
  0
LINE
  8
0
 10
140
 20
52.25
 11
139.865
 21
52.2533
  0
LINE
  8
0
 10
-78.1877
 20
37.504
 11
-78.5552
 21
37.5251
  0
LINE
  8
0
 10
-78.5552
 20
37.5251
 11
-78.9212
 21
37.5642
  0
LINE
  8
0
 10
-78.9212
 20
37.5642
 11
-79.2849
 21
37.6212
  0
LINE
  8
0
 10
-79.2849
 20
37.6212
 11
-79.6454
 21
37.6959
  0
LINE
  8
0
 10
-79.6454
 20
37.6959
 11
-80.0017
 21
37.7883
  0
LINE
  8
0
 10
-80.0017
 20
37.7883
 11
-80.3531
 21
37.898
  0
LINE
  8
0
 10
-80.3531
 20
37.898
 11
-80.6987
 21
38.0249
  0
LINE
  8
0
 10
-80.6987
 20
38.0249
 11
-81.0376
 21
38.1685
  0
LINE
  8
0
 10
-81.0376
 20
38.1685
 11
-81.3691
 21
38.3286
  0
LINE
  8
0
 10
-81.3691
 20
38.3286
 11
-81.6923
 21
38.5048
  0
LINE
  8
0
 10
-81.6923
 20
38.5048
 11
-82.0065
 21
38.6966
  0
LINE
  8
0
 10
-82.0065
 20
38.6966
 11
-82.3109
 21
38.9036
  0
LINE
  8
0
 10
-82.3109
 20
38.9036
 11
-82.6047
 21
39.1254
  0
LINE
  8
0
 10
-82.6047
 20
39.1254
 11
-82.8874
 21
39.3612
  0
LINE
  8
0
 10
-82.8874
 20
39.3612
 11
-83.1581
 21
39.6106
  0
LINE
  8
0
 10
-83.1581
 20
39.6106
 11
-83.4163
 21
39.873
  0
LINE
  8
0
 10
-83.4163
 20
39.873
 11
-83.6612
 21
40.1478
  0
LINE
  8
0
 10
-83.6612
 20
40.1478
 11
-83.8924
 21
40.4343
  0
LINE
  8
0
 10
-83.8924
 20
40.4343
 11
-84.1093
 21
40.7318
  0
LINE
  8
0
 10
-84.1093
 20
40.7318
 11
-84.3113
 21
41.0395
  0
LINE
  8
0
 10
-84.3113
 20
41.0395
 11
-84.498
 21
41.3568
  0
LINE
  8
0
 10
-84.498
 20
41.3568
 11
-84.6688
 21
41.6828
  0
LINE
  8
0
 10
-84.6688
 20
41.6828
 11
-84.8235
 21
42.0169
  0
LINE
  8
0
 10
-84.8235
 20
42.0169
 11
-84.9616
 21
42.3581
  0
LINE
  8
0
 10
-84.9616
 20
42.3581
 11
-85.0827
 21
42.7057
  0
LINE
  8
0
 10
-85.0827
 20
42.7057
 11
-85.1867
 21
43.0589
  0
LINE
  8
0
 10
-85.1867
 20
43.0589
 11
-85.2733
 21
43.4167
  0
LINE
  8
0
 10
-85.2733
 20
43.4167
 11
-85.3421
 21
43.7783
  0
LINE
  8
0
 10
-85.3421
 20
43.7783
 11
-85.3931
 21
44.1428
  0
LINE
  8
0
 10
-85.3931
 20
44.1428
 11
-85.4262
 21
44.5095
  0
LINE
  8
0
 10
-85.4262
 20
44.5095
 11
-85.4413
 21
44.8773
  0
LINE
  8
0
 10
-85.4413
 20
44.8773
 11
-85.4383
 21
45.2454
  0
LINE
  8
0
 10
-85.4383
 20
45.2454
 11
-85.4172
 21
45.6129
  0
LINE
  8
0
 10
-85.4172
 20
45.6129
 11
-85.3781
 21
45.9789
  0
LINE
  8
0
 10
-85.3781
 20
45.9789
 11
-85.3211
 21
46.3426
  0
LINE
  8
0
 10
-85.3211
 20
46.3426
 11
-85.2464
 21
46.7031
  0
LINE
  8
0
 10
-85.2464
 20
46.7031
 11
-85.154
 21
47.0594
  0
LINE
  8
0
 10
-85.154
 20
47.0594
 11
-85.0443
 21
47.4108
  0
LINE
  8
0
 10
-85.0443
 20
47.4108
 11
-84.9174
 21
47.7564
  0
LINE
  8
0
 10
-84.9174
 20
47.7564
 11
-84.7738
 21
48.0953
  0
LINE
  8
0
 10
-84.7738
 20
48.0953
 11
-84.6136
 21
48.4268
  0
LINE
  8
0
 10
-84.6136
 20
48.4268
 11
-84.4375
 21
48.75
  0
LINE
  8
0
 10
-84.4375
 20
48.75
 11
-84.2457
 21
49.0642
  0
LINE
  8
0
 10
-84.2457
 20
49.0642
 11
-84.0386
 21
49.3686
  0
LINE
  8
0
 10
-84.0386
 20
49.3686
 11
-83.8169
 21
49.6624
  0
LINE
  8
0
 10
-83.8169
 20
49.6624
 11
-83.5811
 21
49.9451
  0
LINE
  8
0
 10
-83.5811
 20
49.9451
 11
-83.3316
 21
50.2158
  0
LINE
  8
0
 10
-83.3316
 20
50.2158
 11
-83.0692
 21
50.474
  0
LINE
  8
0
 10
-83.0692
 20
50.474
 11
-82.7944
 21
50.7189
  0
LINE
  8
0
 10
-82.7944
 20
50.7189
 11
-82.508
 21
50.9501
  0
LINE
  8
0
 10
-82.508
 20
50.9501
 11
-82.2105
 21
51.167
  0
LINE
  8
0
 10
-82.2105
 20
51.167
 11
-81.9028
 21
51.369
  0
LINE
  8
0
 10
-81.9028
 20
51.369
 11
-81.5855
 21
51.5557
  0
LINE
  8
0
 10
-81.5855
 20
51.5557
 11
-81.2594
 21
51.7265
  0
LINE
  8
0
 10
-81.2594
 20
51.7265
 11
-80.9254
 21
51.8812
  0
LINE
  8
0
 10
-80.9254
 20
51.8812
 11
-80.5842
 21
52.0193
  0
LINE
  8
0
 10
-80.5842
 20
52.0193
 11
-80.2366
 21
52.1405
  0
LINE
  8
0
 10
-80.2366
 20
52.1405
 11
-79.8834
 21
52.2444
  0
LINE
  8
0
 10
-79.8834
 20
52.2444
 11
-79.5256
 21
52.331
  0
LINE
  8
0
 10
-79.5256
 20
52.331
 11
-79.164
 21
52.3998
  0
LINE
  8
0
 10
-79.164
 20
52.3998
 11
-78.7994
 21
52.4509
  0
LINE
  8
0
 10
-78.7994
 20
52.4509
 11
-78.4328
 21
52.4839
  0
LINE
  8
0
 10
-78.4328
 20
52.4839
 11
-78.065
 21
52.499
  0
LINE
  8
0
 10
-78.065
 20
52.499
 11
-77.6969
 21
52.496
  0
LINE
  8
0
 10
-77.6969
 20
52.496
 11
-77.3294
 21
52.4749
  0
LINE
  8
0
 10
-77.3294
 20
52.4749
 11
-76.9633
 21
52.4358
  0
LINE
  8
0
 10
-76.9633
 20
52.4358
 11
-76.5997
 21
52.3788
  0
LINE
  8
0
 10
-76.5997
 20
52.3788
 11
-76.2392
 21
52.3041
  0
LINE
  8
0
 10
-76.2392
 20
52.3041
 11
-75.8829
 21
52.2117
  0
LINE
  8
0
 10
-75.8829
 20
52.2117
 11
-75.5315
 21
52.102
  0
LINE
  8
0
 10
-75.5315
 20
52.102
 11
-75.1859
 21
51.9751
  0
LINE
  8
0
 10
-75.1859
 20
51.9751
 11
-74.847
 21
51.8315
  0
LINE
  8
0
 10
-74.847
 20
51.8315
 11
-74.5155
 21
51.6714
  0
LINE
  8
0
 10
-74.5155
 20
51.6714
 11
-74.1923
 21
51.4952
  0
LINE
  8
0
 10
-74.1923
 20
51.4952
 11
-73.8781
 21
51.3034
  0
LINE
  8
0
 10
-73.8781
 20
51.3034
 11
-73.5737
 21
51.0963
  0
LINE
  8
0
 10
-73.5737
 20
51.0963
 11
-73.2798
 21
50.8746
  0
LINE
  8
0
 10
-73.2798
 20
50.8746
 11
-72.9972
 21
50.6388
  0
LINE
  8
0
 10
-72.9972
 20
50.6388
 11
-72.7265
 21
50.3894
  0
LINE
  8
0
 10
-72.7265
 20
50.3894
 11
-72.4683
 21
50.1269
  0
LINE
  8
0
 10
-72.4683
 20
50.1269
 11
-72.2233
 21
49.8522
  0
LINE
  8
0
 10
-72.2233
 20
49.8522
 11
-71.9921
 21
49.5657
  0
LINE
  8
0
 10
-71.9921
 20
49.5657
 11
-71.7753
 21
49.2682
  0
LINE
  8
0
 10
-71.7753
 20
49.2682
 11
-71.5733
 21
48.9605
  0
LINE
  8
0
 10
-71.5733
 20
48.9605
 11
-71.3866
 21
48.6432
  0
LINE
  8
0
 10
-71.3866
 20
48.6432
 11
-71.2157
 21
48.3172
  0
LINE
  8
0
 10
-71.2157
 20
48.3172
 11
-71.0611
 21
47.9831
  0
LINE
  8
0
 10
-71.0611
 20
47.9831
 11
-70.923
 21
47.6419
  0
LINE
  8
0
 10
-70.923
 20
47.6419
 11
-70.8018
 21
47.2943
  0
LINE
  8
0
 10
-70.8018
 20
47.2943
 11
-70.6978
 21
46.9411
  0
LINE
  8
0
 10
-70.6978
 20
46.9411
 11
-70.6113
 21
46.5833
  0
LINE
  8
0
 10
-70.6113
 20
46.5833
 11
-70.5424
 21
46.2217
  0
LINE
  8
0
 10
-70.5424
 20
46.2217
 11
-70.4914
 21
45.8571
  0
LINE
  8
0
 10
-70.4914
 20
45.8571
 11
-70.4583
 21
45.4905
  0
LINE
  8
0
 10
-70.4583
 20
45.4905
 11
-70.4433
 21
45.1227
  0
LINE
  8
0
 10
-70.4433
 20
45.1227
 11
-70.4463
 21
44.7546
  0
LINE
  8
0
 10
-70.4463
 20
44.7546
 11
-70.4674
 21
44.3871
  0
LINE
  8
0
 10
-70.4674
 20
44.3871
 11
-70.5064
 21
44.021
  0
LINE
  8
0
 10
-70.5064
 20
44.021
 11
-70.5634
 21
43.6574
  0
LINE
  8
0
 10
-70.5634
 20
43.6574
 11
-70.6382
 21
43.2969
  0
LINE
  8
0
 10
-70.6382
 20
43.2969
 11
-70.7306
 21
42.9406
  0
LINE
  8
0
 10
-70.7306
 20
42.9406
 11
-70.8403
 21
42.5892
  0
LINE
  8
0
 10
-70.8403
 20
42.5892
 11
-70.9671
 21
42.2436
  0
LINE
  8
0
 10
-70.9671
 20
42.2436
 11
-71.1108
 21
41.9047
  0
LINE
  8
0
 10
-71.1108
 20
41.9047
 11
-71.2709
 21
41.5732
  0
LINE
  8
0
 10
-71.2709
 20
41.5732
 11
-71.4471
 21
41.25
  0
LINE
  8
0
 10
-71.4471
 20
41.25
 11
-71.6389
 21
40.9358
  0
LINE
  8
0
 10
-71.6389
 20
40.9358
 11
-71.8459
 21
40.6314
  0
LINE
  8
0
 10
-71.8459
 20
40.6314
 11
-72.0676
 21
40.3375
  0
LINE
  8
0
 10
-72.0676
 20
40.3375
 11
-72.3035
 21
40.0549
  0
LINE
  8
0
 10
-72.3035
 20
40.0549
 11
-72.5529
 21
39.7842
  0
LINE
  8
0
 10
-72.5529
 20
39.7842
 11
-72.8153
 21
39.526
  0
LINE
  8
0
 10
-72.8153
 20
39.526
 11
-73.0901
 21
39.281
  0
LINE
  8
0
 10
-73.0901
 20
39.281
 11
-73.3766
 21
39.0499
  0
LINE
  8
0
 10
-73.3766
 20
39.0499
 11
-73.674
 21
38.833
  0
LINE
  8
0
 10
-73.674
 20
38.833
 11
-73.9818
 21
38.631
  0
LINE
  8
0
 10
-73.9818
 20
38.631
 11
-74.2991
 21
38.4443
  0
LINE
  8
0
 10
-74.2991
 20
38.4443
 11
-74.6251
 21
38.2735
  0
LINE
  8
0
 10
-74.6251
 20
38.2735
 11
-74.9592
 21
38.1188
  0
LINE
  8
0
 10
-74.9592
 20
38.1188
 11
-75.3004
 21
37.9807
  0
LINE
  8
0
 10
-75.3004
 20
37.9807
 11
-75.648
 21
37.8595
  0
LINE
  8
0
 10
-75.648
 20
37.8595
 11
-76.0011
 21
37.7556
  0
LINE
  8
0
 10
-76.0011
 20
37.7556
 11
-76.3589
 21
37.669
  0
LINE
  8
0
 10
-76.3589
 20
37.669
 11
-76.7206
 21
37.6002
  0
LINE
  8
0
 10
-76.7206
 20
37.6002
 11
-77.0851
 21
37.5491
  0
LINE
  8
0
 10
-77.0851
 20
37.5491
 11
-77.4518
 21
37.5161
  0
LINE
  8
0
 10
-77.4518
 20
37.5161
 11
-77.8196
 21
37.501
  0
LINE
  8
0
 10
-77.8196
 20
37.501
 11
-78.1877
 21
37.504
  0
LINE
  8
0
 10
77.4518
 20
37.5161
 11
77.0851
 21
37.5491
  0
LINE
  8
0
 10
77.0851
 20
37.5491
 11
76.7206
 21
37.6002
  0
LINE
  8
0
 10
76.7206
 20
37.6002
 11
76.3589
 21
37.669
  0
LINE
  8
0
 10
76.3589
 20
37.669
 11
76.0011
 21
37.7556
  0
LINE
  8
0
 10
76.0011
 20
37.7556
 11
75.648
 21
37.8595
  0
LINE
  8
0
 10
75.648
 20
37.8595
 11
75.3004
 21
37.9807
  0
LINE
  8
0
 10
75.3004
 20
37.9807
 11
74.9592
 21
38.1188
  0
LINE
  8
0
 10
74.9592
 20
38.1188
 11
74.6251
 21
38.2735
  0
LINE
  8
0
 10
74.6251
 20
38.2735
 11
74.2991
 21
38.4443
  0
LINE
  8
0
 10
74.2991
 20
38.4443
 11
73.9818
 21
38.631
  0
LINE
  8
0
 10
73.9818
 20
38.631
 11
73.674
 21
38.833
  0
LINE
  8
0
 10
73.674
 20
38.833
 11
73.3766
 21
39.0499
  0
LINE
  8
0
 10
73.3766
 20
39.0499
 11
73.0901
 21
39.281
  0
LINE
  8
0
 10
73.0901
 20
39.281
 11
72.8153
 21
39.526
  0
LINE
  8
0
 10
72.8153
 20
39.526
 11
72.5529
 21
39.7842
  0
LINE
  8
0
 10
72.5529
 20
39.7842
 11
72.3035
 21
40.0549
  0
LINE
  8
0
 10
72.3035
 20
40.0549
 11
72.0676
 21
40.3375
  0
LINE
  8
0
 10
72.0676
 20
40.3375
 11
71.8459
 21
40.6314
  0
LINE
  8
0
 10
71.8459
 20
40.6314
 11
71.6389
 21
40.9358
  0
LINE
  8
0
 10
71.6389
 20
40.9358
 11
71.4471
 21
41.25
  0
LINE
  8
0
 10
71.4471
 20
41.25
 11
71.2709
 21
41.5732
  0
LINE
  8
0
 10
71.2709
 20
41.5732
 11
71.1108
 21
41.9047
  0
LINE
  8
0
 10
71.1108
 20
41.9047
 11
70.9671
 21
42.2436
  0
LINE
  8
0
 10
70.9671
 20
42.2436
 11
70.8403
 21
42.5892
  0
LINE
  8
0
 10
70.8403
 20
42.5892
 11
70.7306
 21
42.9406
  0
LINE
  8
0
 10
70.7306
 20
42.9406
 11
70.6382
 21
43.2969
  0
LINE
  8
0
 10
70.6382
 20
43.2969
 11
70.5634
 21
43.6574
  0
LINE
  8
0
 10
70.5634
 20
43.6574
 11
70.5064
 21
44.021
  0
LINE
  8
0
 10
70.5064
 20
44.021
 11
70.4674
 21
44.3871
  0
LINE
  8
0
 10
70.4674
 20
44.3871
 11
70.4463
 21
44.7546
  0
LINE
  8
0
 10
70.4463
 20
44.7546
 11
70.4433
 21
45.1227
  0
LINE
  8
0
 10
70.4433
 20
45.1227
 11
70.4583
 21
45.4905
  0
LINE
  8
0
 10
70.4583
 20
45.4905
 11
70.4914
 21
45.8571
  0
LINE
  8
0
 10
70.4914
 20
45.8571
 11
70.5424
 21
46.2217
  0
LINE
  8
0
 10
70.5424
 20
46.2217
 11
70.6113
 21
46.5833
  0
LINE
  8
0
 10
70.6113
 20
46.5833
 11
70.6978
 21
46.9411
  0
LINE
  8
0
 10
70.6978
 20
46.9411
 11
70.8018
 21
47.2943
  0
LINE
  8
0
 10
70.8018
 20
47.2943
 11
70.923
 21
47.6419
  0
LINE
  8
0
 10
70.923
 20
47.6419
 11
71.0611
 21
47.9831
  0
LINE
  8
0
 10
71.0611
 20
47.9831
 11
71.2157
 21
48.3172
  0
LINE
  8
0
 10
71.2157
 20
48.3172
 11
71.3866
 21
48.6432
  0
LINE
  8
0
 10
71.3866
 20
48.6432
 11
71.5733
 21
48.9605
  0
LINE
  8
0
 10
71.5733
 20
48.9605
 11
71.7753
 21
49.2682
  0
LINE
  8
0
 10
71.7753
 20
49.2682
 11
71.9921
 21
49.5657
  0
LINE
  8
0
 10
71.9921
 20
49.5657
 11
72.2233
 21
49.8522
  0
LINE
  8
0
 10
72.2233
 20
49.8522
 11
72.4683
 21
50.1269
  0
LINE
  8
0
 10
72.4683
 20
50.1269
 11
72.7265
 21
50.3894
  0
LINE
  8
0
 10
72.7265
 20
50.3894
 11
72.9972
 21
50.6388
  0
LINE
  8
0
 10
72.9972
 20
50.6388
 11
73.2798
 21
50.8746
  0
LINE
  8
0
 10
73.2798
 20
50.8746
 11
73.5737
 21
51.0963
  0
LINE
  8
0
 10
73.5737
 20
51.0963
 11
73.8781
 21
51.3034
  0
LINE
  8
0
 10
73.8781
 20
51.3034
 11
74.1923
 21
51.4952
  0
LINE
  8
0
 10
74.1923
 20
51.4952
 11
74.5155
 21
51.6714
  0
LINE
  8
0
 10
74.5155
 20
51.6714
 11
74.847
 21
51.8315
  0
LINE
  8
0
 10
74.847
 20
51.8315
 11
75.1859
 21
51.9751
  0
LINE
  8
0
 10
75.1859
 20
51.9751
 11
75.5315
 21
52.102
  0
LINE
  8
0
 10
75.5315
 20
52.102
 11
75.8829
 21
52.2117
  0
LINE
  8
0
 10
75.8829
 20
52.2117
 11
76.2392
 21
52.3041
  0
LINE
  8
0
 10
76.2392
 20
52.3041
 11
76.5997
 21
52.3788
  0
LINE
  8
0
 10
76.5997
 20
52.3788
 11
76.9633
 21
52.4358
  0
LINE
  8
0
 10
76.9633
 20
52.4358
 11
77.3294
 21
52.4749
  0
LINE
  8
0
 10
77.3294
 20
52.4749
 11
77.6969
 21
52.496
  0
LINE
  8
0
 10
77.6969
 20
52.496
 11
78.065
 21
52.499
  0
LINE
  8
0
 10
78.065
 20
52.499
 11
78.4328
 21
52.4839
  0
LINE
  8
0
 10
78.4328
 20
52.4839
 11
78.7994
 21
52.4509
  0
LINE
  8
0
 10
78.7994
 20
52.4509
 11
79.164
 21
52.3998
  0
LINE
  8
0
 10
79.164
 20
52.3998
 11
79.5256
 21
52.331
  0
LINE
  8
0
 10
79.5256
 20
52.331
 11
79.8834
 21
52.2444
  0
LINE
  8
0
 10
79.8834
 20
52.2444
 11
80.2366
 21
52.1405
  0
LINE
  8
0
 10
80.2366
 20
52.1405
 11
80.5842
 21
52.0193
  0
LINE
  8
0
 10
80.5842
 20
52.0193
 11
80.9254
 21
51.8812
  0
LINE
  8
0
 10
80.9254
 20
51.8812
 11
81.2594
 21
51.7265
  0
LINE
  8
0
 10
81.2594
 20
51.7265
 11
81.5855
 21
51.5557
  0
LINE
  8
0
 10
81.5855
 20
51.5557
 11
81.9028
 21
51.369
  0
LINE
  8
0
 10
81.9028
 20
51.369
 11
82.2105
 21
51.167
  0
LINE
  8
0
 10
82.2105
 20
51.167
 11
82.508
 21
50.9501
  0
LINE
  8
0
 10
82.508
 20
50.9501
 11
82.7944
 21
50.7189
  0
LINE
  8
0
 10
82.7944
 20
50.7189
 11
83.0692
 21
50.474
  0
LINE
  8
0
 10
83.0692
 20
50.474
 11
83.3316
 21
50.2158
  0
LINE
  8
0
 10
83.3316
 20
50.2158
 11
83.5811
 21
49.9451
  0
LINE
  8
0
 10
83.5811
 20
49.9451
 11
83.8169
 21
49.6624
  0
LINE
  8
0
 10
83.8169
 20
49.6624
 11
84.0386
 21
49.3686
  0
LINE
  8
0
 10
84.0386
 20
49.3686
 11
84.2457
 21
49.0642
  0
LINE
  8
0
 10
84.2457
 20
49.0642
 11
84.4375
 21
48.75
  0
LINE
  8
0
 10
84.4375
 20
48.75
 11
84.6136
 21
48.4268
  0
LINE
  8
0
 10
84.6136
 20
48.4268
 11
84.7738
 21
48.0953
  0
LINE
  8
0
 10
84.7738
 20
48.0953
 11
84.9174
 21
47.7564
  0
LINE
  8
0
 10
84.9174
 20
47.7564
 11
85.0443
 21
47.4108
  0
LINE
  8
0
 10
85.0443
 20
47.4108
 11
85.154
 21
47.0594
  0
LINE
  8
0
 10
85.154
 20
47.0594
 11
85.2464
 21
46.7031
  0
LINE
  8
0
 10
85.2464
 20
46.7031
 11
85.3211
 21
46.3426
  0
LINE
  8
0
 10
85.3211
 20
46.3426
 11
85.3781
 21
45.9789
  0
LINE
  8
0
 10
85.3781
 20
45.9789
 11
85.4172
 21
45.6129
  0
LINE
  8
0
 10
85.4172
 20
45.6129
 11
85.4383
 21
45.2454
  0
LINE
  8
0
 10
85.4383
 20
45.2454
 11
85.4413
 21
44.8773
  0
LINE
  8
0
 10
85.4413
 20
44.8773
 11
85.4262
 21
44.5095
  0
LINE
  8
0
 10
85.4262
 20
44.5095
 11
85.3931
 21
44.1428
  0
LINE
  8
0
 10
85.3931
 20
44.1428
 11
85.3421
 21
43.7783
  0
LINE
  8
0
 10
85.3421
 20
43.7783
 11
85.2733
 21
43.4167
  0
LINE
  8
0
 10
85.2733
 20
43.4167
 11
85.1867
 21
43.0589
  0
LINE
  8
0
 10
85.1867
 20
43.0589
 11
85.0827
 21
42.7057
  0
LINE
  8
0
 10
85.0827
 20
42.7057
 11
84.9616
 21
42.3581
  0
LINE
  8
0
 10
84.9616
 20
42.3581
 11
84.8235
 21
42.0169
  0
LINE
  8
0
 10
84.8235
 20
42.0169
 11
84.6688
 21
41.6828
  0
LINE
  8
0
 10
84.6688
 20
41.6828
 11
84.498
 21
41.3568
  0
LINE
  8
0
 10
84.498
 20
41.3568
 11
84.3113
 21
41.0395
  0
LINE
  8
0
 10
84.3113
 20
41.0395
 11
84.1093
 21
40.7318
  0
LINE
  8
0
 10
84.1093
 20
40.7318
 11
83.8924
 21
40.4343
  0
LINE
  8
0
 10
83.8924
 20
40.4343
 11
83.6612
 21
40.1478
  0
LINE
  8
0
 10
83.6612
 20
40.1478
 11
83.4163
 21
39.873
  0
LINE
  8
0
 10
83.4163
 20
39.873
 11
83.1581
 21
39.6106
  0
LINE
  8
0
 10
83.1581
 20
39.6106
 11
82.8874
 21
39.3612
  0
LINE
  8
0
 10
82.8874
 20
39.3612
 11
82.6047
 21
39.1254
  0
LINE
  8
0
 10
82.6047
 20
39.1254
 11
82.3109
 21
38.9036
  0
LINE
  8
0
 10
82.3109
 20
38.9036
 11
82.0065
 21
38.6966
  0
LINE
  8
0
 10
82.0065
 20
38.6966
 11
81.6923
 21
38.5048
  0
LINE
  8
0
 10
81.6923
 20
38.5048
 11
81.3691
 21
38.3286
  0
LINE
  8
0
 10
81.3691
 20
38.3286
 11
81.0376
 21
38.1685
  0
LINE
  8
0
 10
81.0376
 20
38.1685
 11
80.6987
 21
38.0249
  0
LINE
  8
0
 10
80.6987
 20
38.0249
 11
80.3531
 21
37.898
  0
LINE
  8
0
 10
80.3531
 20
37.898
 11
80.0017
 21
37.7883
  0
LINE
  8
0
 10
80.0017
 20
37.7883
 11
79.6454
 21
37.6959
  0
LINE
  8
0
 10
79.6454
 20
37.6959
 11
79.2849
 21
37.6212
  0
LINE
  8
0
 10
79.2849
 20
37.6212
 11
78.9212
 21
37.5642
  0
LINE
  8
0
 10
78.9212
 20
37.5642
 11
78.5552
 21
37.5251
  0
LINE
  8
0
 10
78.5552
 20
37.5251
 11
78.1877
 21
37.504
  0
LINE
  8
0
 10
78.1877
 20
37.504
 11
77.8196
 21
37.501
  0
LINE
  8
0
 10
77.8196
 20
37.501
 11
77.4518
 21
37.5161
  0
LINE
  8
0
 10
21.3523
 20
39.2474
 11
21.3253
 21
39.329
  0
LINE
  8
0
 10
21.3253
 20
39.329
 11
21.3024
 21
39.4118
  0
LINE
  8
0
 10
21.3024
 20
39.4118
 11
21.2836
 21
39.4956
  0
LINE
  8
0
 10
21.2836
 20
39.4956
 11
21.2689
 21
39.5802
  0
LINE
  8
0
 10
21.2689
 20
39.5802
 11
21.2584
 21
39.6655
  0
LINE
  8
0
 10
21.2584
 20
39.6655
 11
21.2521
 21
39.7511
  0
LINE
  8
0
 10
21.2521
 20
39.7511
 11
21.25
 21
39.837
  0
LINE
  8
0
 10
21.25
 20
39.837
 11
21.2521
 21
39.9229
  0
LINE
  8
0
 10
21.2521
 20
39.9229
 11
21.2584
 21
40.0085
  0
LINE
  8
0
 10
21.2584
 20
40.0085
 11
21.2689
 21
40.0938
  0
LINE
  8
0
 10
21.2689
 20
40.0938
 11
21.2836
 21
40.1784
  0
LINE
  8
0
 10
21.2836
 20
40.1784
 11
21.3024
 21
40.2622
  0
LINE
  8
0
 10
21.3024
 20
40.2622
 11
21.3253
 21
40.345
  0
LINE
  8
0
 10
21.3253
 20
40.345
 11
21.3523
 21
40.4265
  0
LINE
  8
0
 10
21.3523
 20
40.4265
 11
21.3832
 21
40.5067
  0
LINE
  8
0
 10
21.3832
 20
40.5067
 11
21.418
 21
40.5852
  0
LINE
  8
0
 10
21.418
 20
40.5852
 11
21.4566
 21
40.6619
  0
LINE
  8
0
 10
21.4566
 20
40.6619
 11
21.499
 21
40.7367
  0
LINE
  8
0
 10
21.499
 20
40.7367
 11
21.5449
 21
40.8092
  0
LINE
  8
0
 10
21.5449
 20
40.8092
 11
21.5944
 21
40.8795
  0
LINE
  8
0
 10
21.5944
 20
40.8795
 11
21.6472
 21
40.9472
  0
LINE
  8
0
 10
21.6472
 20
40.9472
 11
21.7033
 21
41.0122
  0
LINE
  8
0
 10
21.7033
 20
41.0122
 11
21.7626
 21
41.0744
  0
LINE
  8
0
 10
21.7626
 20
41.0744
 11
21.8248
 21
41.1337
  0
LINE
  8
0
 10
21.8248
 20
41.1337
 11
21.8898
 21
41.1898
  0
LINE
  8
0
 10
21.8898
 20
41.1898
 11
21.9575
 21
41.2426
  0
LINE
  8
0
 10
21.9575
 20
41.2426
 11
22.0277
 21
41.2921
  0
LINE
  8
0
 10
22.0277
 20
41.2921
 11
22.1003
 21
41.338
  0
LINE
  8
0
 10
22.1003
 20
41.338
 11
22.175
 21
41.3804
  0
LINE
  8
0
 10
22.175
 20
41.3804
 11
22.2518
 21
41.419
  0
LINE
  8
0
 10
22.2518
 20
41.419
 11
22.3303
 21
41.4538
  0
LINE
  8
0
 10
22.3303
 20
41.4538
 11
22.4104
 21
41.4847
  0
LINE
  8
0
 10
22.4104
 20
41.4847
 11
22.492
 21
41.5116
  0
LINE
  8
0
 10
22.492
 20
41.5116
 11
22.5748
 21
41.5345
  0
LINE
  8
0
 10
22.5748
 20
41.5345
 11
22.6586
 21
41.5534
  0
LINE
  8
0
 10
22.6586
 20
41.5534
 11
22.7432
 21
41.5681
  0
LINE
  8
0
 10
22.7432
 20
41.5681
 11
22.8285
 21
41.5786
  0
LINE
  8
0
 10
22.8285
 20
41.5786
 11
22.9141
 21
41.5849
  0
LINE
  8
0
 10
22.9141
 20
41.5849
 11
23
 21
41.587
  0
LINE
  8
0
 10
23
 20
41.587
 11
23.0859
 21
41.5849
  0
LINE
  8
0
 10
23.0859
 20
41.5849
 11
23.1715
 21
41.5786
  0
LINE
  8
0
 10
23.1715
 20
41.5786
 11
23.2568
 21
41.5681
  0
LINE
  8
0
 10
23.2568
 20
41.5681
 11
23.3414
 21
41.5534
  0
LINE
  8
0
 10
23.3414
 20
41.5534
 11
23.4252
 21
41.5345
  0
LINE
  8
0
 10
23.4252
 20
41.5345
 11
23.508
 21
41.5116
  0
LINE
  8
0
 10
23.508
 20
41.5116
 11
23.5896
 21
41.4847
  0
LINE
  8
0
 10
23.5896
 20
41.4847
 11
23.6697
 21
41.4538
  0
LINE
  8
0
 10
23.6697
 20
41.4538
 11
23.7482
 21
41.419
  0
LINE
  8
0
 10
23.7482
 20
41.419
 11
23.8249
 21
41.3804
  0
LINE
  8
0
 10
23.8249
 20
41.3804
 11
23.8997
 21
41.338
  0
LINE
  8
0
 10
23.8997
 20
41.338
 11
23.9722
 21
41.2921
  0
LINE
  8
0
 10
23.9722
 20
41.2921
 11
24.0425
 21
41.2426
  0
LINE
  8
0
 10
24.0425
 20
41.2426
 11
24.1102
 21
41.1898
  0
LINE
  8
0
 10
24.1102
 20
41.1898
 11
24.1752
 21
41.1337
  0
LINE
  8
0
 10
24.1752
 20
41.1337
 11
24.2374
 21
41.0744
  0
LINE
  8
0
 10
24.2374
 20
41.0744
 11
24.2967
 21
41.0122
  0
LINE
  8
0
 10
24.2967
 20
41.0122
 11
24.3528
 21
40.9472
  0
LINE
  8
0
 10
24.3528
 20
40.9472
 11
24.4056
 21
40.8795
  0
LINE
  8
0
 10
24.4056
 20
40.8795
 11
24.4551
 21
40.8092
  0
LINE
  8
0
 10
24.4551
 20
40.8092
 11
24.501
 21
40.7367
  0
LINE
  8
0
 10
24.501
 20
40.7367
 11
24.5434
 21
40.6619
  0
LINE
  8
0
 10
24.5434
 20
40.6619
 11
24.582
 21
40.5852
  0
LINE
  8
0
 10
24.582
 20
40.5852
 11
24.6168
 21
40.5067
  0
LINE
  8
0
 10
24.6168
 20
40.5067
 11
24.6477
 21
40.4265
  0
LINE
  8
0
 10
24.6477
 20
40.4265
 11
24.6746
 21
40.345
  0
LINE
  8
0
 10
24.6746
 20
40.345
 11
24.6976
 21
40.2622
  0
LINE
  8
0
 10
24.6976
 20
40.2622
 11
24.7164
 21
40.1784
  0
LINE
  8
0
 10
24.7164
 20
40.1784
 11
24.731
 21
40.0938
  0
LINE
  8
0
 10
24.731
 20
40.0938
 11
24.7416
 21
40.0085
  0
LINE
  8
0
 10
24.7416
 20
40.0085
 11
24.7479
 21
39.9229
  0
LINE
  8
0
 10
24.7479
 20
39.9229
 11
24.75
 21
39.837
  0
LINE
  8
0
 10
24.75
 20
39.837
 11
24.7479
 21
39.7511
  0
LINE
  8
0
 10
24.7479
 20
39.7511
 11
24.7416
 21
39.6655
  0
LINE
  8
0
 10
24.7416
 20
39.6655
 11
24.731
 21
39.5802
  0
LINE
  8
0
 10
24.731
 20
39.5802
 11
24.7164
 21
39.4956
  0
LINE
  8
0
 10
24.7164
 20
39.4956
 11
24.6976
 21
39.4118
  0
LINE
  8
0
 10
24.6976
 20
39.4118
 11
24.6746
 21
39.329
  0
LINE
  8
0
 10
24.6746
 20
39.329
 11
24.6477
 21
39.2474
  0
LINE
  8
0
 10
24.6477
 20
39.2474
 11
24.6168
 21
39.1673
  0
LINE
  8
0
 10
24.6168
 20
39.1673
 11
24.582
 21
39.0888
  0
LINE
  8
0
 10
24.582
 20
39.0888
 11
24.5434
 21
39.0121
  0
LINE
  8
0
 10
24.5434
 20
39.0121
 11
24.501
 21
38.9373
  0
LINE
  8
0
 10
24.501
 20
38.9373
 11
24.4551
 21
38.8647
  0
LINE
  8
0
 10
24.4551
 20
38.8647
 11
24.4056
 21
38.7945
  0
LINE
  8
0
 10
24.4056
 20
38.7945
 11
24.3528
 21
38.7268
  0
LINE
  8
0
 10
24.3528
 20
38.7268
 11
24.2967
 21
38.6618
  0
LINE
  8
0
 10
24.2967
 20
38.6618
 11
24.2374
 21
38.5996
  0
LINE
  8
0
 10
24.2374
 20
38.5996
 11
24.1752
 21
38.5403
  0
LINE
  8
0
 10
24.1752
 20
38.5403
 11
24.1102
 21
38.4842
  0
LINE
  8
0
 10
24.1102
 20
38.4842
 11
24.0425
 21
38.4314
  0
LINE
  8
0
 10
24.0425
 20
38.4314
 11
23.9722
 21
38.3819
  0
LINE
  8
0
 10
23.9722
 20
38.3819
 11
23.8997
 21
38.336
  0
LINE
  8
0
 10
23.8997
 20
38.336
 11
23.8249
 21
38.2936
  0
LINE
  8
0
 10
23.8249
 20
38.2936
 11
23.7482
 21
38.255
  0
LINE
  8
0
 10
23.7482
 20
38.255
 11
23.6697
 21
38.2202
  0
LINE
  8
0
 10
23.6697
 20
38.2202
 11
23.5896
 21
38.1893
  0
LINE
  8
0
 10
23.5896
 20
38.1893
 11
23.508
 21
38.1624
  0
LINE
  8
0
 10
23.508
 20
38.1624
 11
23.4252
 21
38.1394
  0
LINE
  8
0
 10
23.4252
 20
38.1394
 11
23.3414
 21
38.1206
  0
LINE
  8
0
 10
23.3414
 20
38.1206
 11
23.2568
 21
38.1059
  0
LINE
  8
0
 10
23.2568
 20
38.1059
 11
23.1715
 21
38.0954
  0
LINE
  8
0
 10
23.1715
 20
38.0954
 11
23.0859
 21
38.0891
  0
LINE
  8
0
 10
23.0859
 20
38.0891
 11
23
 21
38.087
  0
LINE
  8
0
 10
23
 20
38.087
 11
22.9141
 21
38.0891
  0
LINE
  8
0
 10
22.9141
 20
38.0891
 11
22.8285
 21
38.0954
  0
LINE
  8
0
 10
22.8285
 20
38.0954
 11
22.7432
 21
38.1059
  0
LINE
  8
0
 10
22.7432
 20
38.1059
 11
22.6586
 21
38.1206
  0
LINE
  8
0
 10
22.6586
 20
38.1206
 11
22.5748
 21
38.1394
  0
LINE
  8
0
 10
22.5748
 20
38.1394
 11
22.492
 21
38.1624
  0
LINE
  8
0
 10
22.492
 20
38.1624
 11
22.4104
 21
38.1893
  0
LINE
  8
0
 10
22.4104
 20
38.1893
 11
22.3303
 21
38.2202
  0
LINE
  8
0
 10
22.3303
 20
38.2202
 11
22.2518
 21
38.255
  0
LINE
  8
0
 10
22.2518
 20
38.255
 11
22.175
 21
38.2936
  0
LINE
  8
0
 10
22.175
 20
38.2936
 11
22.1003
 21
38.336
  0
LINE
  8
0
 10
22.1003
 20
38.336
 11
22.0277
 21
38.3819
  0
LINE
  8
0
 10
22.0277
 20
38.3819
 11
21.9575
 21
38.4314
  0
LINE
  8
0
 10
21.9575
 20
38.4314
 11
21.8898
 21
38.4842
  0
LINE
  8
0
 10
21.8898
 20
38.4842
 11
21.8248
 21
38.5403
  0
LINE
  8
0
 10
21.8248
 20
38.5403
 11
21.7626
 21
38.5996
  0
LINE
  8
0
 10
21.7626
 20
38.5996
 11
21.7033
 21
38.6618
  0
LINE
  8
0
 10
21.7033
 20
38.6618
 11
21.6472
 21
38.7268
  0
LINE
  8
0
 10
21.6472
 20
38.7268
 11
21.5944
 21
38.7945
  0
LINE
  8
0
 10
21.5944
 20
38.7945
 11
21.5449
 21
38.8647
  0
LINE
  8
0
 10
21.5449
 20
38.8647
 11
21.499
 21
38.9373
  0
LINE
  8
0
 10
21.499
 20
38.9373
 11
21.4566
 21
39.0121
  0
LINE
  8
0
 10
21.4566
 20
39.0121
 11
21.418
 21
39.0888
  0
LINE
  8
0
 10
21.418
 20
39.0888
 11
21.3832
 21
39.1673
  0
LINE
  8
0
 10
21.3832
 20
39.1673
 11
21.3523
 21
39.2474
  0
LINE
  8
0
 10
139.865
 20
-2.74667
 11
139.73
 21
-2.73676
  0
LINE
  8
0
 10
139.73
 20
-2.73676
 11
139.596
 21
-2.72023
  0
LINE
  8
0
 10
139.596
 20
-2.72023
 11
139.464
 21
-2.69716
  0
LINE
  8
0
 10
139.464
 20
-2.69716
 11
139.332
 21
-2.66757
  0
LINE
  8
0
 10
139.332
 20
-2.66757
 11
139.202
 21
-2.63158
  0
LINE
  8
0
 10
139.202
 20
-2.63158
 11
139.074
 21
-2.58923
  0
LINE
  8
0
 10
139.074
 20
-2.58923
 11
138.948
 21
-2.54066
  0
LINE
  8
0
 10
138.948
 20
-2.54066
 11
138.824
 21
-2.48596
  0
LINE
  8
0
 10
138.824
 20
-2.48596
 11
138.704
 21
-2.42528
  0
LINE
  8
0
 10
138.704
 20
-2.42528
 11
138.586
 21
-2.35875
  0
LINE
  8
0
 10
138.586
 20
-2.35875
 11
138.472
 21
-2.28653
  0
LINE
  8
0
 10
138.472
 20
-2.28653
 11
138.362
 21
-2.20882
  0
LINE
  8
0
 10
138.362
 20
-2.20882
 11
138.255
 21
-2.12578
  0
LINE
  8
0
 10
138.255
 20
-2.12578
 11
138.153
 21
-2.03761
  0
LINE
  8
0
 10
138.153
 20
-2.03761
 11
138.055
 21
-1.94453
  0
LINE
  8
0
 10
138.055
 20
-1.94453
 11
137.962
 21
-1.84679
  0
LINE
  8
0
 10
137.962
 20
-1.84679
 11
137.874
 21
-1.74457
  0
LINE
  8
0
 10
137.874
 20
-1.74457
 11
137.791
 21
-1.63817
  0
LINE
  8
0
 10
137.791
 20
-1.63817
 11
137.713
 21
-1.52782
  0
LINE
  8
0
 10
137.713
 20
-1.52782
 11
137.641
 21
-1.41377
  0
LINE
  8
0
 10
137.641
 20
-1.41377
 11
137.575
 21
-1.29634
  0
LINE
  8
0
 10
137.575
 20
-1.29634
 11
137.514
 21
-1.17577
  0
LINE
  8
0
 10
137.514
 20
-1.17577
 11
137.459
 21
-1.05237
  0
LINE
  8
0
 10
137.459
 20
-1.05237
 11
137.411
 21
-0.926437
  0
LINE
  8
0
 10
137.411
 20
-0.926437
 11
137.368
 21
-0.798279
  0
LINE
  8
0
 10
137.368
 20
-0.798279
 11
137.332
 21
-0.668182
  0
LINE
  8
0
 10
137.332
 20
-0.668182
 11
137.303
 21
-0.536484
  0
LINE
  8
0
 10
137.303
 20
-0.536484
 11
137.28
 21
-0.403503
  0
LINE
  8
0
 10
137.28
 20
-0.403503
 11
137.263
 21
-0.269547
  0
LINE
  8
0
 10
137.263
 20
-0.269547
 11
137.253
 21
-0.134933
  0
LINE
  8
0
 10
137.253
 20
-0.134933
 11
137.25
 21
0
  0
LINE
  8
0
 10
137.25
 20
0
 11
137.253
 21
0.134933
  0
LINE
  8
0
 10
137.253
 20
0.134933
 11
137.263
 21
0.269547
  0
LINE
  8
0
 10
137.263
 20
0.269547
 11
137.28
 21
0.403503
  0
LINE
  8
0
 10
137.28
 20
0.403503
 11
137.303
 21
0.536484
  0
LINE
  8
0
 10
137.303
 20
0.536484
 11
137.332
 21
0.668182
  0
LINE
  8
0
 10
137.332
 20
0.668182
 11
137.368
 21
0.798279
  0
LINE
  8
0
 10
137.368
 20
0.798279
 11
137.411
 21
0.926437
  0
LINE
  8
0
 10
137.411
 20
0.926437
 11
137.459
 21
1.05237
  0
LINE
  8
0
 10
137.459
 20
1.05237
 11
137.514
 21
1.17577
  0
LINE
  8
0
 10
137.514
 20
1.17577
 11
137.575
 21
1.29634
  0
LINE
  8
0
 10
137.575
 20
1.29634
 11
137.641
 21
1.41377
  0
LINE
  8
0
 10
137.641
 20
1.41377
 11
137.713
 21
1.52782
  0
LINE
  8
0
 10
137.713
 20
1.52782
 11
137.791
 21
1.63817
  0
LINE
  8
0
 10
137.791
 20
1.63817
 11
137.874
 21
1.74457
  0
LINE
  8
0
 10
137.874
 20
1.74457
 11
137.962
 21
1.84679
  0
LINE
  8
0
 10
137.962
 20
1.84679
 11
138.055
 21
1.94453
  0
LINE
  8
0
 10
138.055
 20
1.94453
 11
138.153
 21
2.03761
  0
LINE
  8
0
 10
138.153
 20
2.03761
 11
138.255
 21
2.12578
  0
LINE
  8
0
 10
138.255
 20
2.12578
 11
138.362
 21
2.20882
  0
LINE
  8
0
 10
138.362
 20
2.20882
 11
138.472
 21
2.28653
  0
LINE
  8
0
 10
138.472
 20
2.28653
 11
138.586
 21
2.35875
  0
LINE
  8
0
 10
138.586
 20
2.35875
 11
138.704
 21
2.42528
  0
LINE
  8
0
 10
138.704
 20
2.42528
 11
138.824
 21
2.48596
  0
LINE
  8
0
 10
138.824
 20
2.48596
 11
138.948
 21
2.54066
  0
LINE
  8
0
 10
138.948
 20
2.54066
 11
139.074
 21
2.58923
  0
LINE
  8
0
 10
139.074
 20
2.58923
 11
139.202
 21
2.63158
  0
LINE
  8
0
 10
139.202
 20
2.63158
 11
139.332
 21
2.66757
  0
LINE
  8
0
 10
139.332
 20
2.66757
 11
139.464
 21
2.69716
  0
LINE
  8
0
 10
139.464
 20
2.69716
 11
139.596
 21
2.72023
  0
LINE
  8
0
 10
139.596
 20
2.72023
 11
139.73
 21
2.73676
  0
LINE
  8
0
 10
139.73
 20
2.73676
 11
139.865
 21
2.74667
  0
LINE
  8
0
 10
139.865
 20
2.74667
 11
140
 21
2.75
  0
LINE
  8
0
 10
140
 20
2.75
 11
140.135
 21
2.74667
  0
LINE
  8
0
 10
140.135
 20
2.74667
 11
140.27
 21
2.73676
  0
LINE
  8
0
 10
140.27
 20
2.73676
 11
140.404
 21
2.72023
  0
LINE
  8
0
 10
140.404
 20
2.72023
 11
140.536
 21
2.69716
  0
LINE
  8
0
 10
140.536
 20
2.69716
 11
140.668
 21
2.66757
  0
LINE
  8
0
 10
140.668
 20
2.66757
 11
140.798
 21
2.63158
  0
LINE
  8
0
 10
140.798
 20
2.63158
 11
140.926
 21
2.58923
  0
LINE
  8
0
 10
140.926
 20
2.58923
 11
141.052
 21
2.54066
  0
LINE
  8
0
 10
141.052
 20
2.54066
 11
141.176
 21
2.48596
  0
LINE
  8
0
 10
141.176
 20
2.48596
 11
141.296
 21
2.42528
  0
LINE
  8
0
 10
141.296
 20
2.42528
 11
141.414
 21
2.35875
  0
LINE
  8
0
 10
141.414
 20
2.35875
 11
141.528
 21
2.28653
  0
LINE
  8
0
 10
141.528
 20
2.28653
 11
141.638
 21
2.20882
  0
LINE
  8
0
 10
141.638
 20
2.20882
 11
141.745
 21
2.12578
  0
LINE
  8
0
 10
141.745
 20
2.12578
 11
141.847
 21
2.03761
  0
LINE
  8
0
 10
141.847
 20
2.03761
 11
141.945
 21
1.94453
  0
LINE
  8
0
 10
141.945
 20
1.94453
 11
142.038
 21
1.84679
  0
LINE
  8
0
 10
142.038
 20
1.84679
 11
142.126
 21
1.74457
  0
LINE
  8
0
 10
142.126
 20
1.74457
 11
142.209
 21
1.63817
  0
LINE
  8
0
 10
142.209
 20
1.63817
 11
142.287
 21
1.52782
  0
LINE
  8
0
 10
142.287
 20
1.52782
 11
142.359
 21
1.41377
  0
LINE
  8
0
 10
142.359
 20
1.41377
 11
142.425
 21
1.29634
  0
LINE
  8
0
 10
142.425
 20
1.29634
 11
142.486
 21
1.17577
  0
LINE
  8
0
 10
142.486
 20
1.17577
 11
142.541
 21
1.05237
  0
LINE
  8
0
 10
142.541
 20
1.05237
 11
142.589
 21
0.926437
  0
LINE
  8
0
 10
142.589
 20
0.926437
 11
142.632
 21
0.798279
  0
LINE
  8
0
 10
142.632
 20
0.798279
 11
142.668
 21
0.668182
  0
LINE
  8
0
 10
142.668
 20
0.668182
 11
142.697
 21
0.536484
  0
LINE
  8
0
 10
142.697
 20
0.536484
 11
142.72
 21
0.403503
  0
LINE
  8
0
 10
142.72
 20
0.403503
 11
142.737
 21
0.269547
  0
LINE
  8
0
 10
142.737
 20
0.269547
 11
142.747
 21
0.134933
  0
LINE
  8
0
 10
142.747
 20
0.134933
 11
142.75
 21
0
  0
LINE
  8
0
 10
142.75
 20
0
 11
142.747
 21
-0.134933
  0
LINE
  8
0
 10
142.747
 20
-0.134933
 11
142.737
 21
-0.269547
  0
LINE
  8
0
 10
142.737
 20
-0.269547
 11
142.72
 21
-0.403503
  0
LINE
  8
0
 10
142.72
 20
-0.403503
 11
142.697
 21
-0.536484
  0
LINE
  8
0
 10
142.697
 20
-0.536484
 11
142.668
 21
-0.668182
  0
LINE
  8
0
 10
142.668
 20
-0.668182
 11
142.632
 21
-0.798279
  0
LINE
  8
0
 10
142.632
 20
-0.798279
 11
142.589
 21
-0.926437
  0
LINE
  8
0
 10
142.589
 20
-0.926437
 11
142.541
 21
-1.05237
  0
LINE
  8
0
 10
142.541
 20
-1.05237
 11
142.486
 21
-1.17577
  0
LINE
  8
0
 10
142.486
 20
-1.17577
 11
142.425
 21
-1.29634
  0
LINE
  8
0
 10
142.425
 20
-1.29634
 11
142.359
 21
-1.41377
  0
LINE
  8
0
 10
142.359
 20
-1.41377
 11
142.287
 21
-1.52782
  0
LINE
  8
0
 10
142.287
 20
-1.52782
 11
142.209
 21
-1.63817
  0
LINE
  8
0
 10
142.209
 20
-1.63817
 11
142.126
 21
-1.74457
  0
LINE
  8
0
 10
142.126
 20
-1.74457
 11
142.038
 21
-1.84679
  0
LINE
  8
0
 10
142.038
 20
-1.84679
 11
141.945
 21
-1.94453
  0
LINE
  8
0
 10
141.945
 20
-1.94453
 11
141.847
 21
-2.03761
  0
LINE
  8
0
 10
141.847
 20
-2.03761
 11
141.745
 21
-2.12578
  0
LINE
  8
0
 10
141.745
 20
-2.12578
 11
141.638
 21
-2.20882
  0
LINE
  8
0
 10
141.638
 20
-2.20882
 11
141.528
 21
-2.28653
  0
LINE
  8
0
 10
141.528
 20
-2.28653
 11
141.414
 21
-2.35875
  0
LINE
  8
0
 10
141.414
 20
-2.35875
 11
141.296
 21
-2.42528
  0
LINE
  8
0
 10
141.296
 20
-2.42528
 11
141.176
 21
-2.48596
  0
LINE
  8
0
 10
141.176
 20
-2.48596
 11
141.052
 21
-2.54066
  0
LINE
  8
0
 10
141.052
 20
-2.54066
 11
140.926
 21
-2.58923
  0
LINE
  8
0
 10
140.926
 20
-2.58923
 11
140.798
 21
-2.63158
  0
LINE
  8
0
 10
140.798
 20
-2.63158
 11
140.668
 21
-2.66757
  0
LINE
  8
0
 10
140.668
 20
-2.66757
 11
140.536
 21
-2.69716
  0
LINE
  8
0
 10
140.536
 20
-2.69716
 11
140.404
 21
-2.72023
  0
LINE
  8
0
 10
140.404
 20
-2.72023
 11
140.27
 21
-2.73676
  0
LINE
  8
0
 10
140.27
 20
-2.73676
 11
140.135
 21
-2.74667
  0
LINE
  8
0
 10
140.135
 20
-2.74667
 11
140
 21
-2.75
  0
LINE
  8
0
 10
140
 20
-2.75
 11
139.865
 21
-2.74667
  0
LINE
  8
0
 10
-140.135
 20
-2.74667
 11
-140.27
 21
-2.73676
  0
LINE
  8
0
 10
-140.27
 20
-2.73676
 11
-140.404
 21
-2.72023
  0
LINE
  8
0
 10
-140.404
 20
-2.72023
 11
-140.536
 21
-2.69716
  0
LINE
  8
0
 10
-140.536
 20
-2.69716
 11
-140.668
 21
-2.66757
  0
LINE
  8
0
 10
-140.668
 20
-2.66757
 11
-140.798
 21
-2.63158
  0
LINE
  8
0
 10
-140.798
 20
-2.63158
 11
-140.926
 21
-2.58923
  0
LINE
  8
0
 10
-140.926
 20
-2.58923
 11
-141.052
 21
-2.54066
  0
LINE
  8
0
 10
-141.052
 20
-2.54066
 11
-141.176
 21
-2.48596
  0
LINE
  8
0
 10
-141.176
 20
-2.48596
 11
-141.296
 21
-2.42528
  0
LINE
  8
0
 10
-141.296
 20
-2.42528
 11
-141.414
 21
-2.35875
  0
LINE
  8
0
 10
-141.414
 20
-2.35875
 11
-141.528
 21
-2.28653
  0
LINE
  8
0
 10
-141.528
 20
-2.28653
 11
-141.638
 21
-2.20882
  0
LINE
  8
0
 10
-141.638
 20
-2.20882
 11
-141.745
 21
-2.12578
  0
LINE
  8
0
 10
-141.745
 20
-2.12578
 11
-141.847
 21
-2.03761
  0
LINE
  8
0
 10
-141.847
 20
-2.03761
 11
-141.945
 21
-1.94453
  0
LINE
  8
0
 10
-141.945
 20
-1.94453
 11
-142.038
 21
-1.84679
  0
LINE
  8
0
 10
-142.038
 20
-1.84679
 11
-142.126
 21
-1.74457
  0
LINE
  8
0
 10
-142.126
 20
-1.74457
 11
-142.209
 21
-1.63817
  0
LINE
  8
0
 10
-142.209
 20
-1.63817
 11
-142.287
 21
-1.52782
  0
LINE
  8
0
 10
-142.287
 20
-1.52782
 11
-142.359
 21
-1.41377
  0
LINE
  8
0
 10
-142.359
 20
-1.41377
 11
-142.425
 21
-1.29634
  0
LINE
  8
0
 10
-142.425
 20
-1.29634
 11
-142.486
 21
-1.17577
  0
LINE
  8
0
 10
-142.486
 20
-1.17577
 11
-142.541
 21
-1.05237
  0
LINE
  8
0
 10
-142.541
 20
-1.05237
 11
-142.589
 21
-0.926437
  0
LINE
  8
0
 10
-142.589
 20
-0.926437
 11
-142.632
 21
-0.798279
  0
LINE
  8
0
 10
-142.632
 20
-0.798279
 11
-142.668
 21
-0.668182
  0
LINE
  8
0
 10
-142.668
 20
-0.668182
 11
-142.697
 21
-0.536484
  0
LINE
  8
0
 10
-142.697
 20
-0.536484
 11
-142.72
 21
-0.403503
  0
LINE
  8
0
 10
-142.72
 20
-0.403503
 11
-142.737
 21
-0.269547
  0
LINE
  8
0
 10
-142.737
 20
-0.269547
 11
-142.747
 21
-0.134933
  0
LINE
  8
0
 10
-142.747
 20
-0.134933
 11
-142.75
 21
0
  0
LINE
  8
0
 10
-142.75
 20
0
 11
-142.747
 21
0.134933
  0
LINE
  8
0
 10
-142.747
 20
0.134933
 11
-142.737
 21
0.269547
  0
LINE
  8
0
 10
-142.737
 20
0.269547
 11
-142.72
 21
0.403503
  0
LINE
  8
0
 10
-142.72
 20
0.403503
 11
-142.697
 21
0.536484
  0
LINE
  8
0
 10
-142.697
 20
0.536484
 11
-142.668
 21
0.668182
  0
LINE
  8
0
 10
-142.668
 20
0.668182
 11
-142.632
 21
0.798279
  0
LINE
  8
0
 10
-142.632
 20
0.798279
 11
-142.589
 21
0.926437
  0
LINE
  8
0
 10
-142.589
 20
0.926437
 11
-142.541
 21
1.05237
  0
LINE
  8
0
 10
-142.541
 20
1.05237
 11
-142.486
 21
1.17577
  0
LINE
  8
0
 10
-142.486
 20
1.17577
 11
-142.425
 21
1.29634
  0
LINE
  8
0
 10
-142.425
 20
1.29634
 11
-142.359
 21
1.41377
  0
LINE
  8
0
 10
-142.359
 20
1.41377
 11
-142.287
 21
1.52782
  0
LINE
  8
0
 10
-142.287
 20
1.52782
 11
-142.209
 21
1.63817
  0
LINE
  8
0
 10
-142.209
 20
1.63817
 11
-142.126
 21
1.74457
  0
LINE
  8
0
 10
-142.126
 20
1.74457
 11
-142.038
 21
1.84679
  0
LINE
  8
0
 10
-142.038
 20
1.84679
 11
-141.945
 21
1.94453
  0
LINE
  8
0
 10
-141.945
 20
1.94453
 11
-141.847
 21
2.03761
  0
LINE
  8
0
 10
-141.847
 20
2.03761
 11
-141.745
 21
2.12578
  0
LINE
  8
0
 10
-141.745
 20
2.12578
 11
-141.638
 21
2.20882
  0
LINE
  8
0
 10
-141.638
 20
2.20882
 11
-141.528
 21
2.28653
  0
LINE
  8
0
 10
-141.528
 20
2.28653
 11
-141.414
 21
2.35875
  0
LINE
  8
0
 10
-141.414
 20
2.35875
 11
-141.296
 21
2.42528
  0
LINE
  8
0
 10
-141.296
 20
2.42528
 11
-141.176
 21
2.48596
  0
LINE
  8
0
 10
-141.176
 20
2.48596
 11
-141.052
 21
2.54066
  0
LINE
  8
0
 10
-141.052
 20
2.54066
 11
-140.926
 21
2.58923
  0
LINE
  8
0
 10
-140.926
 20
2.58923
 11
-140.798
 21
2.63158
  0
LINE
  8
0
 10
-140.798
 20
2.63158
 11
-140.668
 21
2.66757
  0
LINE
  8
0
 10
-140.668
 20
2.66757
 11
-140.536
 21
2.69716
  0
LINE
  8
0
 10
-140.536
 20
2.69716
 11
-140.404
 21
2.72023
  0
LINE
  8
0
 10
-140.404
 20
2.72023
 11
-140.27
 21
2.73676
  0
LINE
  8
0
 10
-140.27
 20
2.73676
 11
-140.135
 21
2.74667
  0
LINE
  8
0
 10
-140.135
 20
2.74667
 11
-140
 21
2.75
  0
LINE
  8
0
 10
-140
 20
2.75
 11
-139.865
 21
2.74667
  0
LINE
  8
0
 10
-139.865
 20
2.74667
 11
-139.73
 21
2.73676
  0
LINE
  8
0
 10
-139.73
 20
2.73676
 11
-139.596
 21
2.72023
  0
LINE
  8
0
 10
-139.596
 20
2.72023
 11
-139.464
 21
2.69716
  0
LINE
  8
0
 10
-139.464
 20
2.69716
 11
-139.332
 21
2.66757
  0
LINE
  8
0
 10
-139.332
 20
2.66757
 11
-139.202
 21
2.63158
  0
LINE
  8
0
 10
-139.202
 20
2.63158
 11
-139.074
 21
2.58923
  0
LINE
  8
0
 10
-139.074
 20
2.58923
 11
-138.948
 21
2.54066
  0
LINE
  8
0
 10
-138.948
 20
2.54066
 11
-138.824
 21
2.48596
  0
LINE
  8
0
 10
-138.824
 20
2.48596
 11
-138.704
 21
2.42528
  0
LINE
  8
0
 10
-138.704
 20
2.42528
 11
-138.586
 21
2.35875
  0
LINE
  8
0
 10
-138.586
 20
2.35875
 11
-138.472
 21
2.28653
  0
LINE
  8
0
 10
-138.472
 20
2.28653
 11
-138.362
 21
2.20882
  0
LINE
  8
0
 10
-138.362
 20
2.20882
 11
-138.255
 21
2.12578
  0
LINE
  8
0
 10
-138.255
 20
2.12578
 11
-138.153
 21
2.03761
  0
LINE
  8
0
 10
-138.153
 20
2.03761
 11
-138.055
 21
1.94453
  0
LINE
  8
0
 10
-138.055
 20
1.94453
 11
-137.962
 21
1.84679
  0
LINE
  8
0
 10
-137.962
 20
1.84679
 11
-137.874
 21
1.74457
  0
LINE
  8
0
 10
-137.874
 20
1.74457
 11
-137.791
 21
1.63817
  0
LINE
  8
0
 10
-137.791
 20
1.63817
 11
-137.713
 21
1.52782
  0
LINE
  8
0
 10
-137.713
 20
1.52782
 11
-137.641
 21
1.41377
  0
LINE
  8
0
 10
-137.641
 20
1.41377
 11
-137.575
 21
1.29634
  0
LINE
  8
0
 10
-137.575
 20
1.29634
 11
-137.514
 21
1.17577
  0
LINE
  8
0
 10
-137.514
 20
1.17577
 11
-137.459
 21
1.05237
  0
LINE
  8
0
 10
-137.459
 20
1.05237
 11
-137.411
 21
0.926437
  0
LINE
  8
0
 10
-137.411
 20
0.926437
 11
-137.368
 21
0.798279
  0
LINE
  8
0
 10
-137.368
 20
0.798279
 11
-137.332
 21
0.668182
  0
LINE
  8
0
 10
-137.332
 20
0.668182
 11
-137.303
 21
0.536484
  0
LINE
  8
0
 10
-137.303
 20
0.536484
 11
-137.28
 21
0.403503
  0
LINE
  8
0
 10
-137.28
 20
0.403503
 11
-137.263
 21
0.269547
  0
LINE
  8
0
 10
-137.263
 20
0.269547
 11
-137.253
 21
0.134933
  0
LINE
  8
0
 10
-137.253
 20
0.134933
 11
-137.25
 21
0
  0
LINE
  8
0
 10
-137.25
 20
0
 11
-137.253
 21
-0.134933
  0
LINE
  8
0
 10
-137.253
 20
-0.134933
 11
-137.263
 21
-0.269547
  0
LINE
  8
0
 10
-137.263
 20
-0.269547
 11
-137.28
 21
-0.403503
  0
LINE
  8
0
 10
-137.28
 20
-0.403503
 11
-137.303
 21
-0.536484
  0
LINE
  8
0
 10
-137.303
 20
-0.536484
 11
-137.332
 21
-0.668182
  0
LINE
  8
0
 10
-137.332
 20
-0.668182
 11
-137.368
 21
-0.798279
  0
LINE
  8
0
 10
-137.368
 20
-0.798279
 11
-137.411
 21
-0.926437
  0
LINE
  8
0
 10
-137.411
 20
-0.926437
 11
-137.459
 21
-1.05237
  0
LINE
  8
0
 10
-137.459
 20
-1.05237
 11
-137.514
 21
-1.17577
  0
LINE
  8
0
 10
-137.514
 20
-1.17577
 11
-137.575
 21
-1.29634
  0
LINE
  8
0
 10
-137.575
 20
-1.29634
 11
-137.641
 21
-1.41377
  0
LINE
  8
0
 10
-137.641
 20
-1.41377
 11
-137.713
 21
-1.52782
  0
LINE
  8
0
 10
-137.713
 20
-1.52782
 11
-137.791
 21
-1.63817
  0
LINE
  8
0
 10
-137.791
 20
-1.63817
 11
-137.874
 21
-1.74457
  0
LINE
  8
0
 10
-137.874
 20
-1.74457
 11
-137.962
 21
-1.84679
  0
LINE
  8
0
 10
-137.962
 20
-1.84679
 11
-138.055
 21
-1.94453
  0
LINE
  8
0
 10
-138.055
 20
-1.94453
 11
-138.153
 21
-2.03761
  0
LINE
  8
0
 10
-138.153
 20
-2.03761
 11
-138.255
 21
-2.12578
  0
LINE
  8
0
 10
-138.255
 20
-2.12578
 11
-138.362
 21
-2.20882
  0
LINE
  8
0
 10
-138.362
 20
-2.20882
 11
-138.472
 21
-2.28653
  0
LINE
  8
0
 10
-138.472
 20
-2.28653
 11
-138.586
 21
-2.35875
  0
LINE
  8
0
 10
-138.586
 20
-2.35875
 11
-138.704
 21
-2.42528
  0
LINE
  8
0
 10
-138.704
 20
-2.42528
 11
-138.824
 21
-2.48596
  0
LINE
  8
0
 10
-138.824
 20
-2.48596
 11
-138.948
 21
-2.54066
  0
LINE
  8
0
 10
-138.948
 20
-2.54066
 11
-139.074
 21
-2.58923
  0
LINE
  8
0
 10
-139.074
 20
-2.58923
 11
-139.202
 21
-2.63158
  0
LINE
  8
0
 10
-139.202
 20
-2.63158
 11
-139.332
 21
-2.66757
  0
LINE
  8
0
 10
-139.332
 20
-2.66757
 11
-139.464
 21
-2.69716
  0
LINE
  8
0
 10
-139.464
 20
-2.69716
 11
-139.596
 21
-2.72023
  0
LINE
  8
0
 10
-139.596
 20
-2.72023
 11
-139.73
 21
-2.73676
  0
LINE
  8
0
 10
-139.73
 20
-2.73676
 11
-139.865
 21
-2.74667
  0
LINE
  8
0
 10
-139.865
 20
-2.74667
 11
-140
 21
-2.75
  0
LINE
  8
0
 10
-140
 20
-2.75
 11
-140.135
 21
-2.74667
  0
LINE
  8
0
 10
44.2648
 20
0.2285
 11
44.2781
 21
0.313354
  0
LINE
  8
0
 10
44.2781
 20
0.313354
 11
44.2956
 21
0.397461
  0
LINE
  8
0
 10
44.2956
 20
0.397461
 11
44.3171
 21
0.480606
  0
LINE
  8
0
 10
44.3171
 20
0.480606
 11
44.3427
 21
0.562592
  0
LINE
  8
0
 10
44.3427
 20
0.562592
 11
44.3723
 21
0.643234
  0
LINE
  8
0
 10
44.3723
 20
0.643234
 11
44.4058
 21
0.722321
  0
LINE
  8
0
 10
44.4058
 20
0.722321
 11
44.4432
 21
0.799652
  0
LINE
  8
0
 10
44.4432
 20
0.799652
 11
44.4843
 21
0.875076
  0
LINE
  8
0
 10
44.4843
 20
0.875076
 11
44.5291
 21
0.94838
  0
LINE
  8
0
 10
44.5291
 20
0.94838
 11
44.5774
 21
1.01941
  0
LINE
  8
0
 10
44.5774
 20
1.01941
 11
44.6291
 21
1.08798
  0
LINE
  8
0
 10
44.6291
 20
1.08798
 11
44.6841
 21
1.15393
  0
LINE
  8
0
 10
44.6841
 20
1.15393
 11
44.7423
 21
1.2171
  0
LINE
  8
0
 10
44.7423
 20
1.2171
 11
44.8036
 21
1.27734
  0
LINE
  8
0
 10
44.8036
 20
1.27734
 11
44.8677
 21
1.3345
  0
LINE
  8
0
 10
44.8677
 20
1.3345
 11
44.9345
 21
1.38844
  0
LINE
  8
0
 10
44.9345
 20
1.38844
 11
45.0039
 21
1.43904
  0
LINE
  8
0
 10
45.0039
 20
1.43904
 11
45.0757
 21
1.48618
  0
LINE
  8
0
 10
45.0757
 20
1.48618
 11
45.1498
 21
1.52974
  0
LINE
  8
0
 10
45.1498
 20
1.52974
 11
45.2258
 21
1.56961
  0
LINE
  8
0
 10
45.2258
 20
1.56961
 11
45.3038
 21
1.6057
  0
LINE
  8
0
 10
45.3038
 20
1.6057
 11
45.3834
 21
1.63791
  0
LINE
  8
0
 10
45.3834
 20
1.63791
 11
45.4645
 21
1.66618
  0
LINE
  8
0
 10
45.4645
 20
1.66618
 11
45.5469
 21
1.69044
  0
LINE
  8
0
 10
45.5469
 20
1.69044
 11
45.6304
 21
1.71063
  0
LINE
  8
0
 10
45.6304
 20
1.71063
 11
45.7148
 21
1.7267
  0
LINE
  8
0
 10
45.7148
 20
1.7267
 11
45.7999
 21
1.73862
  0
LINE
  8
0
 10
45.7999
 20
1.73862
 11
45.8854
 21
1.74632
  0
LINE
  8
0
 10
45.8854
 20
1.74632
 11
45.9712
 21
1.74985
  0
LINE
  8
0
 10
45.9712
 20
1.74985
 11
46.0571
 21
1.74915
  0
LINE
  8
0
 10
46.0571
 20
1.74915
 11
46.1429
 21
1.74422
  0
LINE
  8
0
 10
46.1429
 20
1.74422
 11
46.2283
 21
1.73511
  0
LINE
  8
0
 10
46.2283
 20
1.73511
 11
46.3131
 21
1.7218
  0
LINE
  8
0
 10
46.3131
 20
1.7218
 11
46.3972
 21
1.70436
  0
LINE
  8
0
 10
46.3972
 20
1.70436
 11
46.4804
 21
1.68282
  0
LINE
  8
0
 10
46.4804
 20
1.68282
 11
46.5624
 21
1.65721
  0
LINE
  8
0
 10
46.5624
 20
1.65721
 11
46.643
 21
1.62761
  0
LINE
  8
0
 10
46.643
 20
1.62761
 11
46.7221
 21
1.59409
  0
LINE
  8
0
 10
46.7221
 20
1.59409
 11
46.7994
 21
1.55673
  0
LINE
  8
0
 10
46.7994
 20
1.55673
 11
46.8748
 21
1.51562
  0
LINE
  8
0
 10
46.8748
 20
1.51562
 11
46.9482
 21
1.47086
  0
LINE
  8
0
 10
46.9482
 20
1.47086
 11
47.0192
 21
1.42256
  0
LINE
  8
0
 10
47.0192
 20
1.42256
 11
47.0878
 21
1.37083
  0
LINE
  8
0
 10
47.0878
 20
1.37083
 11
47.1537
 21
1.3158
  0
LINE
  8
0
 10
47.1537
 20
1.3158
 11
47.2169
 21
1.2576
  0
LINE
  8
0
 10
47.2169
 20
1.2576
 11
47.2771
 21
1.19637
  0
LINE
  8
0
 10
47.2771
 20
1.19637
 11
47.3343
 21
1.13225
  0
LINE
  8
0
 10
47.3343
 20
1.13225
 11
47.3882
 21
1.06541
  0
LINE
  8
0
 10
47.3882
 20
1.06541
 11
47.4388
 21
0.996002
  0
LINE
  8
0
 10
47.4388
 20
0.996002
 11
47.4859
 21
0.924194
  0
LINE
  8
0
 10
47.4859
 20
0.924194
 11
47.5295
 21
0.850159
  0
LINE
  8
0
 10
47.5295
 20
0.850159
 11
47.5694
 21
0.774078
  0
LINE
  8
0
 10
47.5694
 20
0.774078
 11
47.6055
 21
0.696136
  0
LINE
  8
0
 10
47.6055
 20
0.696136
 11
47.6377
 21
0.616516
  0
LINE
  8
0
 10
47.6377
 20
0.616516
 11
47.666
 21
0.5354
  0
LINE
  8
0
 10
47.666
 20
0.5354
 11
47.6902
 21
0.453003
  0
LINE
  8
0
 10
47.6902
 20
0.453003
 11
47.7104
 21
0.369522
  0
LINE
  8
0
 10
47.7104
 20
0.369522
 11
47.7265
 21
0.285141
  0
LINE
  8
0
 10
47.7265
 20
0.285141
 11
47.7384
 21
0.200073
  0
LINE
  8
0
 10
47.7384
 20
0.200073
 11
47.7461
 21
0.114532
  0
LINE
  8
0
 10
47.7461
 20
0.114532
 11
47.7496
 21
0.028717
  0
LINE
  8
0
 10
47.7496
 20
0.028717
 11
47.7489
 21
-0.0571594
  0
LINE
  8
0
 10
47.7489
 20
-0.0571594
 11
47.744
 21
-0.142914
  0
LINE
  8
0
 10
47.744
 20
-0.142914
 11
47.7349
 21
-0.228333
  0
LINE
  8
0
 10
47.7349
 20
-0.228333
 11
47.7216
 21
-0.313187
  0
LINE
  8
0
 10
47.7216
 20
-0.313187
 11
47.7041
 21
-0.397293
  0
LINE
  8
0
 10
47.7041
 20
-0.397293
 11
47.6826
 21
-0.480438
  0
LINE
  8
0
 10
47.6826
 20
-0.480438
 11
47.657
 21
-0.562424
  0
LINE
  8
0
 10
47.657
 20
-0.562424
 11
47.6274
 21
-0.643066
  0
LINE
  8
0
 10
47.6274
 20
-0.643066
 11
47.5939
 21
-0.722153
  0
LINE
  8
0
 10
47.5939
 20
-0.722153
 11
47.5565
 21
-0.799484
  0
LINE
  8
0
 10
47.5565
 20
-0.799484
 11
47.5154
 21
-0.874908
  0
LINE
  8
0
 10
47.5154
 20
-0.874908
 11
47.4706
 21
-0.948212
  0
LINE
  8
0
 10
47.4706
 20
-0.948212
 11
47.4223
 21
-1.01924
  0
LINE
  8
0
 10
47.4223
 20
-1.01924
 11
47.3706
 21
-1.08781
  0
LINE
  8
0
 10
47.3706
 20
-1.08781
 11
47.3156
 21
-1.15376
  0
LINE
  8
0
 10
47.3156
 20
-1.15376
 11
47.2574
 21
-1.21693
  0
LINE
  8
0
 10
47.2574
 20
-1.21693
 11
47.1961
 21
-1.27718
  0
LINE
  8
0
 10
47.1961
 20
-1.27718
 11
47.132
 21
-1.33434
  0
LINE
  8
0
 10
47.132
 20
-1.33434
 11
47.0652
 21
-1.38828
  0
LINE
  8
0
 10
47.0652
 20
-1.38828
 11
46.9958
 21
-1.43887
  0
LINE
  8
0
 10
46.9958
 20
-1.43887
 11
46.924
 21
-1.48601
  0
LINE
  8
0
 10
46.924
 20
-1.48601
 11
46.8499
 21
-1.52957
  0
LINE
  8
0
 10
46.8499
 20
-1.52957
 11
46.7738
 21
-1.56944
  0
LINE
  8
0
 10
46.7738
 20
-1.56944
 11
46.6959
 21
-1.60553
  0
LINE
  8
0
 10
46.6959
 20
-1.60553
 11
46.6163
 21
-1.63774
  0
LINE
  8
0
 10
46.6163
 20
-1.63774
 11
46.5352
 21
-1.66602
  0
LINE
  8
0
 10
46.5352
 20
-1.66602
 11
46.4528
 21
-1.69028
  0
LINE
  8
0
 10
46.4528
 20
-1.69028
 11
46.3693
 21
-1.71046
  0
LINE
  8
0
 10
46.3693
 20
-1.71046
 11
46.2849
 21
-1.72653
  0
LINE
  8
0
 10
46.2849
 20
-1.72653
 11
46.1998
 21
-1.73845
  0
LINE
  8
0
 10
46.1998
 20
-1.73845
 11
46.1143
 21
-1.74615
  0
LINE
  8
0
 10
46.1143
 20
-1.74615
 11
46.0285
 21
-1.74968
  0
LINE
  8
0
 10
46.0285
 20
-1.74968
 11
45.9426
 21
-1.74898
  0
LINE
  8
0
 10
45.9426
 20
-1.74898
 11
45.8568
 21
-1.74405
  0
LINE
  8
0
 10
45.8568
 20
-1.74405
 11
45.7714
 21
-1.73494
  0
LINE
  8
0
 10
45.7714
 20
-1.73494
 11
45.6866
 21
-1.72163
  0
LINE
  8
0
 10
45.6866
 20
-1.72163
 11
45.6025
 21
-1.70419
  0
LINE
  8
0
 10
45.6025
 20
-1.70419
 11
45.5193
 21
-1.68265
  0
LINE
  8
0
 10
45.5193
 20
-1.68265
 11
45.4373
 21
-1.65704
  0
LINE
  8
0
 10
45.4373
 20
-1.65704
 11
45.3567
 21
-1.62744
  0
LINE
  8
0
 10
45.3567
 20
-1.62744
 11
45.2776
 21
-1.59392
  0
LINE
  8
0
 10
45.2776
 20
-1.59392
 11
45.2003
 21
-1.55656
  0
LINE
  8
0
 10
45.2003
 20
-1.55656
 11
45.1248
 21
-1.51546
  0
LINE
  8
0
 10
45.1248
 20
-1.51546
 11
45.0515
 21
-1.47069
  0
LINE
  8
0
 10
45.0515
 20
-1.47069
 11
44.9805
 21
-1.42239
  0
LINE
  8
0
 10
44.9805
 20
-1.42239
 11
44.9119
 21
-1.37067
  0
LINE
  8
0
 10
44.9119
 20
-1.37067
 11
44.846
 21
-1.31563
  0
LINE
  8
0
 10
44.846
 20
-1.31563
 11
44.7828
 21
-1.25743
  0
LINE
  8
0
 10
44.7828
 20
-1.25743
 11
44.7226
 21
-1.1962
  0
LINE
  8
0
 10
44.7226
 20
-1.1962
 11
44.6654
 21
-1.13208
  0
LINE
  8
0
 10
44.6654
 20
-1.13208
 11
44.6115
 21
-1.06525
  0
LINE
  8
0
 10
44.6115
 20
-1.06525
 11
44.5609
 21
-0.995834
  0
LINE
  8
0
 10
44.5609
 20
-0.995834
 11
44.5137
 21
-0.924026
  0
LINE
  8
0
 10
44.5137
 20
-0.924026
 11
44.4702
 21
-0.849991
  0
LINE
  8
0
 10
44.4702
 20
-0.849991
 11
44.4303
 21
-0.773911
  0
LINE
  8
0
 10
44.4303
 20
-0.773911
 11
44.3942
 21
-0.695969
  0
LINE
  8
0
 10
44.3942
 20
-0.695969
 11
44.362
 21
-0.616348
  0
LINE
  8
0
 10
44.362
 20
-0.616348
 11
44.3337
 21
-0.535233
  0
LINE
  8
0
 10
44.3337
 20
-0.535233
 11
44.3095
 21
-0.452835
  0
LINE
  8
0
 10
44.3095
 20
-0.452835
 11
44.2893
 21
-0.369354
  0
LINE
  8
0
 10
44.2893
 20
-0.369354
 11
44.2732
 21
-0.284973
  0
LINE
  8
0
 10
44.2732
 20
-0.284973
 11
44.2613
 21
-0.199905
  0
LINE
  8
0
 10
44.2613
 20
-0.199905
 11
44.2536
 21
-0.114365
  0
LINE
  8
0
 10
44.2536
 20
-0.114365
 11
44.2501
 21
-0.0285339
  0
LINE
  8
0
 10
44.2501
 20
-0.0285339
 11
44.2508
 21
0.0573425
  0
LINE
  8
0
 10
44.2508
 20
0.0573425
 11
44.2557
 21
0.143082
  0
LINE
  8
0
 10
44.2557
 20
0.143082
 11
44.2648
 21
0.2285
  0
LINE
  8
0
 10
-87.6153
 20
-3.96562
 11
-87.7375
 21
-3.95461
  0
LINE
  8
0
 10
-87.7375
 20
-3.95461
 11
-87.8591
 21
-3.93759
  0
LINE
  8
0
 10
-87.8591
 20
-3.93759
 11
-87.9796
 21
-3.91464
  0
LINE
  8
0
 10
-87.9796
 20
-3.91464
 11
-88.0989
 21
-3.8858
  0
LINE
  8
0
 10
-88.0989
 20
-3.8858
 11
-88.2166
 21
-3.85114
  0
LINE
  8
0
 10
-88.2166
 20
-3.85114
 11
-88.3324
 21
-3.81075
  0
LINE
  8
0
 10
-88.3324
 20
-3.81075
 11
-88.4462
 21
-3.76472
  0
LINE
  8
0
 10
-88.4462
 20
-3.76472
 11
-88.5575
 21
-3.71317
  0
LINE
  8
0
 10
-88.5575
 20
-3.71317
 11
-88.6662
 21
-3.6562
  0
LINE
  8
0
 10
-88.6662
 20
-3.6562
 11
-88.772
 21
-3.59399
  0
LINE
  8
0
 10
-88.772
 20
-3.59399
 11
-88.8746
 21
-3.52666
  0
LINE
  8
0
 10
-88.8746
 20
-3.52666
 11
-88.9737
 21
-3.45436
  0
LINE
  8
0
 10
-88.9737
 20
-3.45436
 11
-89.0692
 21
-3.3773
  0
LINE
  8
0
 10
-89.0692
 20
-3.3773
 11
-89.1608
 21
-3.29564
  0
LINE
  8
0
 10
-89.1608
 20
-3.29564
 11
-89.2483
 21
-3.20959
  0
LINE
  8
0
 10
-89.2483
 20
-3.20959
 11
-89.3314
 21
-3.11934
  0
LINE
  8
0
 10
-89.3314
 20
-3.11934
 11
-89.41
 21
-3.02513
  0
LINE
  8
0
 10
-89.41
 20
-3.02513
 11
-89.4839
 21
-2.92717
  0
LINE
  8
0
 10
-89.4839
 20
-2.92717
 11
-89.5529
 21
-2.82571
  0
LINE
  8
0
 10
-89.5529
 20
-2.82571
 11
-89.6169
 21
-2.72098
  0
LINE
  8
0
 10
-89.6169
 20
-2.72098
 11
-89.6756
 21
-2.61324
  0
LINE
  8
0
 10
-89.6756
 20
-2.61324
 11
-89.729
 21
-2.50275
  0
LINE
  8
0
 10
-89.729
 20
-2.50275
 11
-89.7769
 21
-2.38977
  0
LINE
  8
0
 10
-89.7769
 20
-2.38977
 11
-89.8192
 21
-2.27458
  0
LINE
  8
0
 10
-89.8192
 20
-2.27458
 11
-89.8557
 21
-2.15746
  0
LINE
  8
0
 10
-89.8557
 20
-2.15746
 11
-89.8865
 21
-2.03867
  0
LINE
  8
0
 10
-89.8865
 20
-2.03867
 11
-89.9114
 21
-1.91852
  0
LINE
  8
0
 10
-89.9114
 20
-1.91852
 11
-89.9304
 21
-1.7973
  0
LINE
  8
0
 10
-89.9304
 20
-1.7973
 11
-89.9435
 21
-1.67528
  0
LINE
  8
0
 10
-89.9435
 20
-1.67528
 11
-89.9505
 21
-1.55278
  0
LINE
  8
0
 10
-89.9505
 20
-1.55278
 11
-89.9515
 21
-1.43008
  0
LINE
  8
0
 10
-89.9515
 20
-1.43008
 11
-89.9465
 21
-1.30748
  0
LINE
  8
0
 10
-89.9465
 20
-1.30748
 11
-89.9354
 21
-1.18526
  0
LINE
  8
0
 10
-89.9354
 20
-1.18526
 11
-89.9184
 21
-1.06374
  0
LINE
  8
0
 10
-89.9184
 20
-1.06374
 11
-89.8955
 21
-0.943207
  0
LINE
  8
0
 10
-89.8955
 20
-0.943207
 11
-89.8666
 21
-0.823929
  0
LINE
  8
0
 10
-89.8666
 20
-0.823929
 11
-89.832
 21
-0.706223
  0
LINE
  8
0
 10
-89.832
 20
-0.706223
 11
-89.7916
 21
-0.590363
  0
LINE
  8
0
 10
-89.7916
 20
-0.590363
 11
-89.7456
 21
-0.476608
  0
LINE
  8
0
 10
-89.7456
 20
-0.476608
 11
-89.694
 21
-0.365265
  0
LINE
  8
0
 10
-89.694
 20
-0.365265
 11
-89.6371
 21
-0.256577
  0
LINE
  8
0
 10
-89.6371
 20
-0.256577
 11
-89.5748
 21
-0.150818
  0
LINE
  8
0
 10
-89.5748
 20
-0.150818
 11
-89.5075
 21
-0.048233
  0
LINE
  8
0
 10
-89.5075
 20
-0.048233
 11
-89.4352
 21
0.0509033
  0
LINE
  8
0
 10
-89.4352
 20
0.0509033
 11
-89.3581
 21
0.146393
  0
LINE
  8
0
 10
-89.3581
 20
0.146393
 11
-89.2765
 21
0.237976
  0
LINE
  8
0
 10
-89.2765
 20
0.237976
 11
-89.1904
 21
0.325455
  0
LINE
  8
0
 10
-89.1904
 20
0.325455
 11
-89.1002
 21
0.4086
  0
LINE
  8
0
 10
-89.1002
 20
0.4086
 11
-89.006
 21
0.487213
  0
LINE
  8
0
 10
-89.006
 20
0.487213
 11
-88.908
 21
0.561127
  0
LINE
  8
0
 10
-88.908
 20
0.561127
 11
-88.8065
 21
0.630127
  0
LINE
  8
0
 10
-88.8065
 20
0.630127
 11
-88.7018
 21
0.694061
  0
LINE
  8
0
 10
-88.7018
 20
0.694061
 11
-88.5941
 21
0.752792
  0
LINE
  8
0
 10
-88.5941
 20
0.752792
 11
-88.4836
 21
0.806168
  0
LINE
  8
0
 10
-88.4836
 20
0.806168
 11
-88.3706
 21
0.85405
  0
LINE
  8
0
 10
-88.3706
 20
0.85405
 11
-88.2554
 21
0.896332
  0
LINE
  8
0
 10
-88.2554
 20
0.896332
 11
-88.1383
 21
0.932907
  0
LINE
  8
0
 10
-88.1383
 20
0.932907
 11
-88.0195
 21
0.963699
  0
LINE
  8
0
 10
-88.0195
 20
0.963699
 11
-87.8994
 21
0.988617
  0
LINE
  8
0
 10
-87.8994
 20
0.988617
 11
-87.7781
 21
1.00761
  0
LINE
  8
0
 10
-87.7781
 20
1.00761
 11
-87.6561
 21
1.02065
  0
LINE
  8
0
 10
-87.6561
 20
1.02065
 11
-87.5336
 21
1.02766
  0
LINE
  8
0
 10
-87.5336
 20
1.02766
 11
-87.4109
 21
1.02867
  0
LINE
  8
0
 10
-87.4109
 20
1.02867
 11
-87.2883
 21
1.02365
  0
LINE
  8
0
 10
-87.2883
 20
1.02365
 11
-87.1661
 21
1.01262
  0
LINE
  8
0
 10
-87.1661
 20
1.01262
 11
-87.0446
 21
0.995605
  0
LINE
  8
0
 10
-87.0446
 20
0.995605
 11
-86.924
 21
0.972656
  0
LINE
  8
0
 10
-86.924
 20
0.972656
 11
-86.8048
 21
0.943817
  0
LINE
  8
0
 10
-86.8048
 20
0.943817
 11
-86.6871
 21
0.909164
  0
LINE
  8
0
 10
-86.6871
 20
0.909164
 11
-86.5712
 21
0.868774
  0
LINE
  8
0
 10
-86.5712
 20
0.868774
 11
-86.4575
 21
0.822739
  0
LINE
  8
0
 10
-86.4575
 20
0.822739
 11
-86.3461
 21
0.771179
  0
LINE
  8
0
 10
-86.3461
 20
0.771179
 11
-86.2374
 21
0.714233
  0
LINE
  8
0
 10
-86.2374
 20
0.714233
 11
-86.1317
 21
0.652008
  0
LINE
  8
0
 10
-86.1317
 20
0.652008
 11
-86.0291
 21
0.584671
  0
LINE
  8
0
 10
-86.0291
 20
0.584671
 11
-85.9299
 21
0.51239
  0
LINE
  8
0
 10
-85.9299
 20
0.51239
 11
-85.8344
 21
0.435318
  0
LINE
  8
0
 10
-85.8344
 20
0.435318
 11
-85.7428
 21
0.353668
  0
LINE
  8
0
 10
-85.7428
 20
0.353668
 11
-85.6554
 21
0.267609
  0
LINE
  8
0
 10
-85.6554
 20
0.267609
 11
-85.5722
 21
0.177368
  0
LINE
  8
0
 10
-85.5722
 20
0.177368
 11
-85.4936
 21
0.0831604
  0
LINE
  8
0
 10
-85.4936
 20
0.0831604
 11
-85.4197
 21
-0.0147858
  0
LINE
  8
0
 10
-85.4197
 20
-0.0147858
 11
-85.3507
 21
-0.116257
  0
LINE
  8
0
 10
-85.3507
 20
-0.116257
 11
-85.2868
 21
-0.220978
  0
LINE
  8
0
 10
-85.2868
 20
-0.220978
 11
-85.228
 21
-0.32872
  0
LINE
  8
0
 10
-85.228
 20
-0.32872
 11
-85.1747
 21
-0.439209
  0
LINE
  8
0
 10
-85.1747
 20
-0.439209
 11
-85.1268
 21
-0.552185
  0
LINE
  8
0
 10
-85.1268
 20
-0.552185
 11
-85.0845
 21
-0.667389
  0
LINE
  8
0
 10
-85.0845
 20
-0.667389
 11
-85.0479
 21
-0.784515
  0
LINE
  8
0
 10
-85.0479
 20
-0.784515
 11
-85.0171
 21
-0.90329
  0
LINE
  8
0
 10
-85.0171
 20
-0.90329
 11
-84.9922
 21
-1.02344
  0
LINE
  8
0
 10
-84.9922
 20
-1.02344
 11
-84.9732
 21
-1.14467
  0
LINE
  8
0
 10
-84.9732
 20
-1.14467
 11
-84.9602
 21
-1.26668
  0
LINE
  8
0
 10
-84.9602
 20
-1.26668
 11
-84.9532
 21
-1.38919
  0
LINE
  8
0
 10
-84.9532
 20
-1.38919
 11
-84.9522
 21
-1.51189
  0
LINE
  8
0
 10
-84.9522
 20
-1.51189
 11
-84.9572
 21
-1.63449
  0
LINE
  8
0
 10
-84.9572
 20
-1.63449
 11
-84.9682
 21
-1.7567
  0
LINE
  8
0
 10
-84.9682
 20
-1.7567
 11
-84.9852
 21
-1.87822
  0
LINE
  8
0
 10
-84.9852
 20
-1.87822
 11
-85.0082
 21
-1.99876
  0
LINE
  8
0
 10
-85.0082
 20
-1.99876
 11
-85.037
 21
-2.11803
  0
LINE
  8
0
 10
-85.037
 20
-2.11803
 11
-85.0717
 21
-2.23573
  0
LINE
  8
0
 10
-85.0717
 20
-2.23573
 11
-85.1121
 21
-2.35161
  0
LINE
  8
0
 10
-85.1121
 20
-2.35161
 11
-85.1581
 21
-2.46535
  0
LINE
  8
0
 10
-85.1581
 20
-2.46535
 11
-85.2096
 21
-2.57671
  0
LINE
  8
0
 10
-85.2096
 20
-2.57671
 11
-85.2666
 21
-2.68539
  0
LINE
  8
0
 10
-85.2666
 20
-2.68539
 11
-85.3288
 21
-2.79115
  0
LINE
  8
0
 10
-85.3288
 20
-2.79115
 11
-85.3961
 21
-2.89374
  0
LINE
  8
0
 10
-85.3961
 20
-2.89374
 11
-85.4684
 21
-2.99289
  0
LINE
  8
0
 10
-85.4684
 20
-2.99289
 11
-85.5455
 21
-3.08838
  0
LINE
  8
0
 10
-85.5455
 20
-3.08838
 11
-85.6272
 21
-3.17996
  0
LINE
  8
0
 10
-85.6272
 20
-3.17996
 11
-85.7132
 21
-3.26744
  0
LINE
  8
0
 10
-85.7132
 20
-3.26744
 11
-85.8035
 21
-3.35059
  0
LINE
  8
0
 10
-85.8035
 20
-3.35059
 11
-85.8977
 21
-3.4292
  0
LINE
  8
0
 10
-85.8977
 20
-3.4292
 11
-85.9956
 21
-3.5031
  0
LINE
  8
0
 10
-85.9956
 20
-3.5031
 11
-86.0971
 21
-3.5721
  0
LINE
  8
0
 10
-86.0971
 20
-3.5721
 11
-86.2018
 21
-3.63605
  0
LINE
  8
0
 10
-86.2018
 20
-3.63605
 11
-86.3096
 21
-3.69478
  0
LINE
  8
0
 10
-86.3096
 20
-3.69478
 11
-86.4201
 21
-3.74814
  0
LINE
  8
0
 10
-86.4201
 20
-3.74814
 11
-86.533
 21
-3.79602
  0
LINE
  8
0
 10
-86.533
 20
-3.79602
 11
-86.6482
 21
-3.8383
  0
LINE
  8
0
 10
-86.6482
 20
-3.8383
 11
-86.7654
 21
-3.87489
  0
LINE
  8
0
 10
-86.7654
 20
-3.87489
 11
-86.8841
 21
-3.90567
  0
LINE
  8
0
 10
-86.8841
 20
-3.90567
 11
-87.0043
 21
-3.9306
  0
LINE
  8
0
 10
-87.0043
 20
-3.9306
 11
-87.1255
 21
-3.9496
  0
LINE
  8
0
 10
-87.1255
 20
-3.9496
 11
-87.2475
 21
-3.96262
  0
LINE
  8
0
 10
-87.2475
 20
-3.96262
 11
-87.37
 21
-3.96965
  0
LINE
  8
0
 10
-87.37
 20
-3.96965
 11
-87.4927
 21
-3.97064
  0
LINE
  8
0
 10
-87.4927
 20
-3.97064
 11
-87.6153
 21
-3.96562
  0
LINE
  8
0
 10
87.37
 20
-3.96965
 11
87.2475
 21
-3.96262
  0
LINE
  8
0
 10
87.2475
 20
-3.96262
 11
87.1255
 21
-3.9496
  0
LINE
  8
0
 10
87.1255
 20
-3.9496
 11
87.0043
 21
-3.9306
  0
LINE
  8
0
 10
87.0043
 20
-3.9306
 11
86.8841
 21
-3.90567
  0
LINE
  8
0
 10
86.8841
 20
-3.90567
 11
86.7654
 21
-3.87489
  0
LINE
  8
0
 10
86.7654
 20
-3.87489
 11
86.6482
 21
-3.8383
  0
LINE
  8
0
 10
86.6482
 20
-3.8383
 11
86.533
 21
-3.79602
  0
LINE
  8
0
 10
86.533
 20
-3.79602
 11
86.4201
 21
-3.74814
  0
LINE
  8
0
 10
86.4201
 20
-3.74814
 11
86.3096
 21
-3.69478
  0
LINE
  8
0
 10
86.3096
 20
-3.69478
 11
86.2018
 21
-3.63605
  0
LINE
  8
0
 10
86.2018
 20
-3.63605
 11
86.0971
 21
-3.5721
  0
LINE
  8
0
 10
86.0971
 20
-3.5721
 11
85.9956
 21
-3.5031
  0
LINE
  8
0
 10
85.9956
 20
-3.5031
 11
85.8977
 21
-3.4292
  0
LINE
  8
0
 10
85.8977
 20
-3.4292
 11
85.8035
 21
-3.35059
  0
LINE
  8
0
 10
85.8035
 20
-3.35059
 11
85.7132
 21
-3.26744
  0
LINE
  8
0
 10
85.7132
 20
-3.26744
 11
85.6272
 21
-3.17996
  0
LINE
  8
0
 10
85.6272
 20
-3.17996
 11
85.5455
 21
-3.08838
  0
LINE
  8
0
 10
85.5455
 20
-3.08838
 11
85.4684
 21
-2.99289
  0
LINE
  8
0
 10
85.4684
 20
-2.99289
 11
85.3961
 21
-2.89374
  0
LINE
  8
0
 10
85.3961
 20
-2.89374
 11
85.3288
 21
-2.79115
  0
LINE
  8
0
 10
85.3288
 20
-2.79115
 11
85.2666
 21
-2.68539
  0
LINE
  8
0
 10
85.2666
 20
-2.68539
 11
85.2096
 21
-2.57671
  0
LINE
  8
0
 10
85.2096
 20
-2.57671
 11
85.1581
 21
-2.46535
  0
LINE
  8
0
 10
85.1581
 20
-2.46535
 11
85.1121
 21
-2.35161
  0
LINE
  8
0
 10
85.1121
 20
-2.35161
 11
85.0717
 21
-2.23573
  0
LINE
  8
0
 10
85.0717
 20
-2.23573
 11
85.037
 21
-2.11803
  0
LINE
  8
0
 10
85.037
 20
-2.11803
 11
85.0082
 21
-1.99876
  0
LINE
  8
0
 10
85.0082
 20
-1.99876
 11
84.9852
 21
-1.87822
  0
LINE
  8
0
 10
84.9852
 20
-1.87822
 11
84.9682
 21
-1.7567
  0
LINE
  8
0
 10
84.9682
 20
-1.7567
 11
84.9572
 21
-1.63449
  0
LINE
  8
0
 10
84.9572
 20
-1.63449
 11
84.9522
 21
-1.51189
  0
LINE
  8
0
 10
84.9522
 20
-1.51189
 11
84.9532
 21
-1.38919
  0
LINE
  8
0
 10
84.9532
 20
-1.38919
 11
84.9602
 21
-1.26668
  0
LINE
  8
0
 10
84.9602
 20
-1.26668
 11
84.9732
 21
-1.14467
  0
LINE
  8
0
 10
84.9732
 20
-1.14467
 11
84.9922
 21
-1.02344
  0
LINE
  8
0
 10
84.9922
 20
-1.02344
 11
85.0171
 21
-0.90329
  0
LINE
  8
0
 10
85.0171
 20
-0.90329
 11
85.0479
 21
-0.784515
  0
LINE
  8
0
 10
85.0479
 20
-0.784515
 11
85.0845
 21
-0.667389
  0
LINE
  8
0
 10
85.0845
 20
-0.667389
 11
85.1268
 21
-0.552185
  0
LINE
  8
0
 10
85.1268
 20
-0.552185
 11
85.1747
 21
-0.439209
  0
LINE
  8
0
 10
85.1747
 20
-0.439209
 11
85.228
 21
-0.32872
  0
LINE
  8
0
 10
85.228
 20
-0.32872
 11
85.2868
 21
-0.220978
  0
LINE
  8
0
 10
85.2868
 20
-0.220978
 11
85.3507
 21
-0.116257
  0
LINE
  8
0
 10
85.3507
 20
-0.116257
 11
85.4197
 21
-0.0147858
  0
LINE
  8
0
 10
85.4197
 20
-0.0147858
 11
85.4936
 21
0.0831604
  0
LINE
  8
0
 10
85.4936
 20
0.0831604
 11
85.5722
 21
0.177368
  0
LINE
  8
0
 10
85.5722
 20
0.177368
 11
85.6554
 21
0.267609
  0
LINE
  8
0
 10
85.6554
 20
0.267609
 11
85.7428
 21
0.353668
  0
LINE
  8
0
 10
85.7428
 20
0.353668
 11
85.8344
 21
0.435318
  0
LINE
  8
0
 10
85.8344
 20
0.435318
 11
85.9299
 21
0.51239
  0
LINE
  8
0
 10
85.9299
 20
0.51239
 11
86.0291
 21
0.584671
  0
LINE
  8
0
 10
86.0291
 20
0.584671
 11
86.1317
 21
0.652008
  0
LINE
  8
0
 10
86.1317
 20
0.652008
 11
86.2374
 21
0.714233
  0
LINE
  8
0
 10
86.2374
 20
0.714233
 11
86.3461
 21
0.771179
  0
LINE
  8
0
 10
86.3461
 20
0.771179
 11
86.4575
 21
0.822739
  0
LINE
  8
0
 10
86.4575
 20
0.822739
 11
86.5712
 21
0.868774
  0
LINE
  8
0
 10
86.5712
 20
0.868774
 11
86.6871
 21
0.909164
  0
LINE
  8
0
 10
86.6871
 20
0.909164
 11
86.8048
 21
0.943817
  0
LINE
  8
0
 10
86.8048
 20
0.943817
 11
86.924
 21
0.972656
  0
LINE
  8
0
 10
86.924
 20
0.972656
 11
87.0446
 21
0.995605
  0
LINE
  8
0
 10
87.0446
 20
0.995605
 11
87.1661
 21
1.01262
  0
LINE
  8
0
 10
87.1661
 20
1.01262
 11
87.2883
 21
1.02365
  0
LINE
  8
0
 10
87.2883
 20
1.02365
 11
87.4109
 21
1.02867
  0
LINE
  8
0
 10
87.4109
 20
1.02867
 11
87.5336
 21
1.02766
  0
LINE
  8
0
 10
87.5336
 20
1.02766
 11
87.6561
 21
1.02065
  0
LINE
  8
0
 10
87.6561
 20
1.02065
 11
87.7781
 21
1.00761
  0
LINE
  8
0
 10
87.7781
 20
1.00761
 11
87.8994
 21
0.988617
  0
LINE
  8
0
 10
87.8994
 20
0.988617
 11
88.0195
 21
0.963699
  0
LINE
  8
0
 10
88.0195
 20
0.963699
 11
88.1383
 21
0.932907
  0
LINE
  8
0
 10
88.1383
 20
0.932907
 11
88.2554
 21
0.896332
  0
LINE
  8
0
 10
88.2554
 20
0.896332
 11
88.3706
 21
0.85405
  0
LINE
  8
0
 10
88.3706
 20
0.85405
 11
88.4836
 21
0.806168
  0
LINE
  8
0
 10
88.4836
 20
0.806168
 11
88.5941
 21
0.752792
  0
LINE
  8
0
 10
88.5941
 20
0.752792
 11
88.7018
 21
0.694061
  0
LINE
  8
0
 10
88.7018
 20
0.694061
 11
88.8065
 21
0.630127
  0
LINE
  8
0
 10
88.8065
 20
0.630127
 11
88.908
 21
0.561127
  0
LINE
  8
0
 10
88.908
 20
0.561127
 11
89.006
 21
0.487213
  0
LINE
  8
0
 10
89.006
 20
0.487213
 11
89.1002
 21
0.4086
  0
LINE
  8
0
 10
89.1002
 20
0.4086
 11
89.1904
 21
0.325455
  0
LINE
  8
0
 10
89.1904
 20
0.325455
 11
89.2765
 21
0.237976
  0
LINE
  8
0
 10
89.2765
 20
0.237976
 11
89.3581
 21
0.146393
  0
LINE
  8
0
 10
89.3581
 20
0.146393
 11
89.4352
 21
0.0509033
  0
LINE
  8
0
 10
89.4352
 20
0.0509033
 11
89.5075
 21
-0.048233
  0
LINE
  8
0
 10
89.5075
 20
-0.048233
 11
89.5748
 21
-0.150818
  0
LINE
  8
0
 10
89.5748
 20
-0.150818
 11
89.6371
 21
-0.256577
  0
LINE
  8
0
 10
89.6371
 20
-0.256577
 11
89.694
 21
-0.365265
  0
LINE
  8
0
 10
89.694
 20
-0.365265
 11
89.7456
 21
-0.476608
  0
LINE
  8
0
 10
89.7456
 20
-0.476608
 11
89.7916
 21
-0.590363
  0
LINE
  8
0
 10
89.7916
 20
-0.590363
 11
89.832
 21
-0.706223
  0
LINE
  8
0
 10
89.832
 20
-0.706223
 11
89.8666
 21
-0.823929
  0
LINE
  8
0
 10
89.8666
 20
-0.823929
 11
89.8955
 21
-0.943207
  0
LINE
  8
0
 10
89.8955
 20
-0.943207
 11
89.9184
 21
-1.06374
  0
LINE
  8
0
 10
89.9184
 20
-1.06374
 11
89.9354
 21
-1.18526
  0
LINE
  8
0
 10
89.9354
 20
-1.18526
 11
89.9465
 21
-1.30748
  0
LINE
  8
0
 10
89.9465
 20
-1.30748
 11
89.9515
 21
-1.43008
  0
LINE
  8
0
 10
89.9515
 20
-1.43008
 11
89.9505
 21
-1.55278
  0
LINE
  8
0
 10
89.9505
 20
-1.55278
 11
89.9435
 21
-1.67528
  0
LINE
  8
0
 10
89.9435
 20
-1.67528
 11
89.9304
 21
-1.7973
  0
LINE
  8
0
 10
89.9304
 20
-1.7973
 11
89.9114
 21
-1.91852
  0
LINE
  8
0
 10
89.9114
 20
-1.91852
 11
89.8865
 21
-2.03867
  0
LINE
  8
0
 10
89.8865
 20
-2.03867
 11
89.8557
 21
-2.15746
  0
LINE
  8
0
 10
89.8557
 20
-2.15746
 11
89.8192
 21
-2.27458
  0
LINE
  8
0
 10
89.8192
 20
-2.27458
 11
89.7769
 21
-2.38977
  0
LINE
  8
0
 10
89.7769
 20
-2.38977
 11
89.729
 21
-2.50275
  0
LINE
  8
0
 10
89.729
 20
-2.50275
 11
89.6756
 21
-2.61324
  0
LINE
  8
0
 10
89.6756
 20
-2.61324
 11
89.6169
 21
-2.72098
  0
LINE
  8
0
 10
89.6169
 20
-2.72098
 11
89.5529
 21
-2.82571
  0
LINE
  8
0
 10
89.5529
 20
-2.82571
 11
89.4839
 21
-2.92717
  0
LINE
  8
0
 10
89.4839
 20
-2.92717
 11
89.41
 21
-3.02513
  0
LINE
  8
0
 10
89.41
 20
-3.02513
 11
89.3314
 21
-3.11934
  0
LINE
  8
0
 10
89.3314
 20
-3.11934
 11
89.2483
 21
-3.20959
  0
LINE
  8
0
 10
89.2483
 20
-3.20959
 11
89.1608
 21
-3.29564
  0
LINE
  8
0
 10
89.1608
 20
-3.29564
 11
89.0692
 21
-3.3773
  0
LINE
  8
0
 10
89.0692
 20
-3.3773
 11
88.9737
 21
-3.45436
  0
LINE
  8
0
 10
88.9737
 20
-3.45436
 11
88.8746
 21
-3.52666
  0
LINE
  8
0
 10
88.8746
 20
-3.52666
 11
88.772
 21
-3.59399
  0
LINE
  8
0
 10
88.772
 20
-3.59399
 11
88.6662
 21
-3.6562
  0
LINE
  8
0
 10
88.6662
 20
-3.6562
 11
88.5575
 21
-3.71317
  0
LINE
  8
0
 10
88.5575
 20
-3.71317
 11
88.4462
 21
-3.76472
  0
LINE
  8
0
 10
88.4462
 20
-3.76472
 11
88.3324
 21
-3.81075
  0
LINE
  8
0
 10
88.3324
 20
-3.81075
 11
88.2166
 21
-3.85114
  0
LINE
  8
0
 10
88.2166
 20
-3.85114
 11
88.0989
 21
-3.8858
  0
LINE
  8
0
 10
88.0989
 20
-3.8858
 11
87.9796
 21
-3.91464
  0
LINE
  8
0
 10
87.9796
 20
-3.91464
 11
87.8591
 21
-3.93759
  0
LINE
  8
0
 10
87.8591
 20
-3.93759
 11
87.7375
 21
-3.95461
  0
LINE
  8
0
 10
87.7375
 20
-3.95461
 11
87.6153
 21
-3.96562
  0
LINE
  8
0
 10
87.6153
 20
-3.96562
 11
87.4927
 21
-3.97064
  0
LINE
  8
0
 10
87.4927
 20
-3.97064
 11
87.37
 21
-3.96965
  0
LINE
  8
0
 10
-52.9743
 20
-23.9656
 11
-53.0965
 21
-23.9546
  0
LINE
  8
0
 10
-53.0965
 20
-23.9546
 11
-53.218
 21
-23.9376
  0
LINE
  8
0
 10
-53.218
 20
-23.9376
 11
-53.3386
 21
-23.9146
  0
LINE
  8
0
 10
-53.3386
 20
-23.9146
 11
-53.4579
 21
-23.8858
  0
LINE
  8
0
 10
-53.4579
 20
-23.8858
 11
-53.5756
 21
-23.8511
  0
LINE
  8
0
 10
-53.5756
 20
-23.8511
 11
-53.6914
 21
-23.8107
  0
LINE
  8
0
 10
-53.6914
 20
-23.8107
 11
-53.8052
 21
-23.7647
  0
LINE
  8
0
 10
-53.8052
 20
-23.7647
 11
-53.9165
 21
-23.7132
  0
LINE
  8
0
 10
-53.9165
 20
-23.7132
 11
-54.0252
 21
-23.6562
  0
LINE
  8
0
 10
-54.0252
 20
-23.6562
 11
-54.131
 21
-23.594
  0
LINE
  8
0
 10
-54.131
 20
-23.594
 11
-54.2336
 21
-23.5266
  0
LINE
  8
0
 10
-54.2336
 20
-23.5266
 11
-54.3327
 21
-23.4543
  0
LINE
  8
0
 10
-54.3327
 20
-23.4543
 11
-54.4282
 21
-23.3773
  0
LINE
  8
0
 10
-54.4282
 20
-23.3773
 11
-54.5198
 21
-23.2956
  0
LINE
  8
0
 10
-54.5198
 20
-23.2956
 11
-54.6073
 21
-23.2096
  0
LINE
  8
0
 10
-54.6073
 20
-23.2096
 11
-54.6904
 21
-23.1193
  0
LINE
  8
0
 10
-54.6904
 20
-23.1193
 11
-54.769
 21
-23.0251
  0
LINE
  8
0
 10
-54.769
 20
-23.0251
 11
-54.8429
 21
-22.9272
  0
LINE
  8
0
 10
-54.8429
 20
-22.9272
 11
-54.9119
 21
-22.8257
  0
LINE
  8
0
 10
-54.9119
 20
-22.8257
 11
-54.9759
 21
-22.721
  0
LINE
  8
0
 10
-54.9759
 20
-22.721
 11
-55.0346
 21
-22.6132
  0
LINE
  8
0
 10
-55.0346
 20
-22.6132
 11
-55.088
 21
-22.5027
  0
LINE
  8
0
 10
-55.088
 20
-22.5027
 11
-55.1359
 21
-22.3898
  0
LINE
  8
0
 10
-55.1359
 20
-22.3898
 11
-55.1781
 21
-22.2746
  0
LINE
  8
0
 10
-55.1781
 20
-22.2746
 11
-55.2147
 21
-22.1574
  0
LINE
  8
0
 10
-55.2147
 20
-22.1574
 11
-55.2455
 21
-22.0387
  0
LINE
  8
0
 10
-55.2455
 20
-22.0387
 11
-55.2704
 21
-21.9185
  0
LINE
  8
0
 10
-55.2704
 20
-21.9185
 11
-55.2894
 21
-21.7973
  0
LINE
  8
0
 10
-55.2894
 20
-21.7973
 11
-55.3025
 21
-21.6753
  0
LINE
  8
0
 10
-55.3025
 20
-21.6753
 11
-55.3095
 21
-21.5528
  0
LINE
  8
0
 10
-55.3095
 20
-21.5528
 11
-55.3105
 21
-21.4301
  0
LINE
  8
0
 10
-55.3105
 20
-21.4301
 11
-55.3055
 21
-21.3075
  0
LINE
  8
0
 10
-55.3055
 20
-21.3075
 11
-55.2944
 21
-21.1853
  0
LINE
  8
0
 10
-55.2944
 20
-21.1853
 11
-55.2774
 21
-21.0637
  0
LINE
  8
0
 10
-55.2774
 20
-21.0637
 11
-55.2545
 21
-20.9432
  0
LINE
  8
0
 10
-55.2545
 20
-20.9432
 11
-55.2256
 21
-20.8239
  0
LINE
  8
0
 10
-55.2256
 20
-20.8239
 11
-55.191
 21
-20.7062
  0
LINE
  8
0
 10
-55.191
 20
-20.7062
 11
-55.1506
 21
-20.5903
  0
LINE
  8
0
 10
-55.1506
 20
-20.5903
 11
-55.1046
 21
-20.4766
  0
LINE
  8
0
 10
-55.1046
 20
-20.4766
 11
-55.053
 21
-20.3652
  0
LINE
  8
0
 10
-55.053
 20
-20.3652
 11
-54.996
 21
-20.2566
  0
LINE
  8
0
 10
-54.996
 20
-20.2566
 11
-54.9338
 21
-20.1508
  0
LINE
  8
0
 10
-54.9338
 20
-20.1508
 11
-54.8665
 21
-20.0482
  0
LINE
  8
0
 10
-54.8665
 20
-20.0482
 11
-54.7942
 21
-19.9491
  0
LINE
  8
0
 10
-54.7942
 20
-19.9491
 11
-54.7171
 21
-19.8536
  0
LINE
  8
0
 10
-54.7171
 20
-19.8536
 11
-54.6355
 21
-19.762
  0
LINE
  8
0
 10
-54.6355
 20
-19.762
 11
-54.5494
 21
-19.6745
  0
LINE
  8
0
 10
-54.5494
 20
-19.6745
 11
-54.4592
 21
-19.5914
  0
LINE
  8
0
 10
-54.4592
 20
-19.5914
 11
-54.365
 21
-19.5128
  0
LINE
  8
0
 10
-54.365
 20
-19.5128
 11
-54.267
 21
-19.4389
  0
LINE
  8
0
 10
-54.267
 20
-19.4389
 11
-54.1655
 21
-19.3698
  0
LINE
  8
0
 10
-54.1655
 20
-19.3698
 11
-54.0608
 21
-19.3059
  0
LINE
  8
0
 10
-54.0608
 20
-19.3059
 11
-53.9531
 21
-19.2472
  0
LINE
  8
0
 10
-53.9531
 20
-19.2472
 11
-53.8426
 21
-19.1938
  0
LINE
  8
0
 10
-53.8426
 20
-19.1938
 11
-53.7296
 21
-19.1459
  0
LINE
  8
0
 10
-53.7296
 20
-19.1459
 11
-53.6144
 21
-19.1036
  0
LINE
  8
0
 10
-53.6144
 20
-19.1036
 11
-53.4973
 21
-19.0671
  0
LINE
  8
0
 10
-53.4973
 20
-19.0671
 11
-53.3785
 21
-19.0363
  0
LINE
  8
0
 10
-53.3785
 20
-19.0363
 11
-53.2584
 21
-19.0114
  0
LINE
  8
0
 10
-53.2584
 20
-19.0114
 11
-53.1371
 21
-18.9924
  0
LINE
  8
0
 10
-53.1371
 20
-18.9924
 11
-53.0151
 21
-18.9793
  0
LINE
  8
0
 10
-53.0151
 20
-18.9793
 11
-52.8926
 21
-18.9723
  0
LINE
  8
0
 10
-52.8926
 20
-18.9723
 11
-52.7699
 21
-18.9713
  0
LINE
  8
0
 10
-52.7699
 20
-18.9713
 11
-52.6473
 21
-18.9763
  0
LINE
  8
0
 10
-52.6473
 20
-18.9763
 11
-52.5251
 21
-18.9874
  0
LINE
  8
0
 10
-52.5251
 20
-18.9874
 11
-52.4036
 21
-19.0044
  0
LINE
  8
0
 10
-52.4036
 20
-19.0044
 11
-52.283
 21
-19.0273
  0
LINE
  8
0
 10
-52.283
 20
-19.0273
 11
-52.1638
 21
-19.0562
  0
LINE
  8
0
 10
-52.1638
 20
-19.0562
 11
-52.0461
 21
-19.0908
  0
LINE
  8
0
 10
-52.0461
 20
-19.0908
 11
-51.9302
 21
-19.1312
  0
LINE
  8
0
 10
-51.9302
 20
-19.1312
 11
-51.8164
 21
-19.1772
  0
LINE
  8
0
 10
-51.8164
 20
-19.1772
 11
-51.7051
 21
-19.2288
  0
LINE
  8
0
 10
-51.7051
 20
-19.2288
 11
-51.5964
 21
-19.2857
  0
LINE
  8
0
 10
-51.5964
 20
-19.2857
 11
-51.4906
 21
-19.348
  0
LINE
  8
0
 10
-51.4906
 20
-19.348
 11
-51.3881
 21
-19.4153
  0
LINE
  8
0
 10
-51.3881
 20
-19.4153
 11
-51.2889
 21
-19.4876
  0
LINE
  8
0
 10
-51.2889
 20
-19.4876
 11
-51.1934
 21
-19.5647
  0
LINE
  8
0
 10
-51.1934
 20
-19.5647
 11
-51.1018
 21
-19.6463
  0
LINE
  8
0
 10
-51.1018
 20
-19.6463
 11
-51.0144
 21
-19.7324
  0
LINE
  8
0
 10
-51.0144
 20
-19.7324
 11
-50.9312
 21
-19.8226
  0
LINE
  8
0
 10
-50.9312
 20
-19.8226
 11
-50.8526
 21
-19.9168
  0
LINE
  8
0
 10
-50.8526
 20
-19.9168
 11
-50.7787
 21
-20.0148
  0
LINE
  8
0
 10
-50.7787
 20
-20.0148
 11
-50.7097
 21
-20.1162
  0
LINE
  8
0
 10
-50.7097
 20
-20.1162
 11
-50.6458
 21
-20.221
  0
LINE
  8
0
 10
-50.6458
 20
-20.221
 11
-50.587
 21
-20.3287
  0
LINE
  8
0
 10
-50.587
 20
-20.3287
 11
-50.5337
 21
-20.4392
  0
LINE
  8
0
 10
-50.5337
 20
-20.4392
 11
-50.4858
 21
-20.5522
  0
LINE
  8
0
 10
-50.4858
 20
-20.5522
 11
-50.4435
 21
-20.6674
  0
LINE
  8
0
 10
-50.4435
 20
-20.6674
 11
-50.4069
 21
-20.7845
  0
LINE
  8
0
 10
-50.4069
 20
-20.7845
 11
-50.3761
 21
-20.9033
  0
LINE
  8
0
 10
-50.3761
 20
-20.9033
 11
-50.3512
 21
-21.0234
  0
LINE
  8
0
 10
-50.3512
 20
-21.0234
 11
-50.3322
 21
-21.1447
  0
LINE
  8
0
 10
-50.3322
 20
-21.1447
 11
-50.3192
 21
-21.2667
  0
LINE
  8
0
 10
-50.3192
 20
-21.2667
 11
-50.3121
 21
-21.3892
  0
LINE
  8
0
 10
-50.3121
 20
-21.3892
 11
-50.3111
 21
-21.5119
  0
LINE
  8
0
 10
-50.3111
 20
-21.5119
 11
-50.3162
 21
-21.6345
  0
LINE
  8
0
 10
-50.3162
 20
-21.6345
 11
-50.3272
 21
-21.7567
  0
LINE
  8
0
 10
-50.3272
 20
-21.7567
 11
-50.3442
 21
-21.8782
  0
LINE
  8
0
 10
-50.3442
 20
-21.8782
 11
-50.3672
 21
-21.9987
  0
LINE
  8
0
 10
-50.3672
 20
-21.9987
 11
-50.396
 21
-22.118
  0
LINE
  8
0
 10
-50.396
 20
-22.118
 11
-50.4307
 21
-22.2357
  0
LINE
  8
0
 10
-50.4307
 20
-22.2357
 11
-50.4711
 21
-22.3516
  0
LINE
  8
0
 10
-50.4711
 20
-22.3516
 11
-50.5171
 21
-22.4653
  0
LINE
  8
0
 10
-50.5171
 20
-22.4653
 11
-50.5686
 21
-22.5767
  0
LINE
  8
0
 10
-50.5686
 20
-22.5767
 11
-50.6256
 21
-22.6854
  0
LINE
  8
0
 10
-50.6256
 20
-22.6854
 11
-50.6878
 21
-22.7911
  0
LINE
  8
0
 10
-50.6878
 20
-22.7911
 11
-50.7551
 21
-22.8937
  0
LINE
  8
0
 10
-50.7551
 20
-22.8937
 11
-50.8274
 21
-22.9929
  0
LINE
  8
0
 10
-50.8274
 20
-22.9929
 11
-50.9045
 21
-23.0884
  0
LINE
  8
0
 10
-50.9045
 20
-23.0884
 11
-50.9862
 21
-23.1799
  0
LINE
  8
0
 10
-50.9862
 20
-23.1799
 11
-51.0722
 21
-23.2674
  0
LINE
  8
0
 10
-51.0722
 20
-23.2674
 11
-51.1624
 21
-23.3506
  0
LINE
  8
0
 10
-51.1624
 20
-23.3506
 11
-51.2567
 21
-23.4292
  0
LINE
  8
0
 10
-51.2567
 20
-23.4292
 11
-51.3546
 21
-23.5031
  0
LINE
  8
0
 10
-51.3546
 20
-23.5031
 11
-51.4561
 21
-23.5721
  0
LINE
  8
0
 10
-51.4561
 20
-23.5721
 11
-51.5608
 21
-23.636
  0
LINE
  8
0
 10
-51.5608
 20
-23.636
 11
-51.6685
 21
-23.6948
  0
LINE
  8
0
 10
-51.6685
 20
-23.6948
 11
-51.7791
 21
-23.7481
  0
LINE
  8
0
 10
-51.7791
 20
-23.7481
 11
-51.892
 21
-23.796
  0
LINE
  8
0
 10
-51.892
 20
-23.796
 11
-52.0072
 21
-23.8383
  0
LINE
  8
0
 10
-52.0072
 20
-23.8383
 11
-52.1243
 21
-23.8749
  0
LINE
  8
0
 10
-52.1243
 20
-23.8749
 11
-52.2431
 21
-23.9057
  0
LINE
  8
0
 10
-52.2431
 20
-23.9057
 11
-52.3633
 21
-23.9306
  0
LINE
  8
0
 10
-52.3633
 20
-23.9306
 11
-52.4845
 21
-23.9496
  0
LINE
  8
0
 10
-52.4845
 20
-23.9496
 11
-52.6065
 21
-23.9626
  0
LINE
  8
0
 10
-52.6065
 20
-23.9626
 11
-52.729
 21
-23.9696
  0
LINE
  8
0
 10
-52.729
 20
-23.9696
 11
-52.8517
 21
-23.9706
  0
LINE
  8
0
 10
-52.8517
 20
-23.9706
 11
-52.9743
 21
-23.9656
  0
LINE
  8
0
 10
52.729
 20
-23.9696
 11
52.6065
 21
-23.9626
  0
LINE
  8
0
 10
52.6065
 20
-23.9626
 11
52.4845
 21
-23.9496
  0
LINE
  8
0
 10
52.4845
 20
-23.9496
 11
52.3633
 21
-23.9306
  0
LINE
  8
0
 10
52.3633
 20
-23.9306
 11
52.2431
 21
-23.9057
  0
LINE
  8
0
 10
52.2431
 20
-23.9057
 11
52.1243
 21
-23.8749
  0
LINE
  8
0
 10
52.1243
 20
-23.8749
 11
52.0072
 21
-23.8383
  0
LINE
  8
0
 10
52.0072
 20
-23.8383
 11
51.892
 21
-23.796
  0
LINE
  8
0
 10
51.892
 20
-23.796
 11
51.7791
 21
-23.7481
  0
LINE
  8
0
 10
51.7791
 20
-23.7481
 11
51.6685
 21
-23.6948
  0
LINE
  8
0
 10
51.6685
 20
-23.6948
 11
51.5608
 21
-23.636
  0
LINE
  8
0
 10
51.5608
 20
-23.636
 11
51.4561
 21
-23.5721
  0
LINE
  8
0
 10
51.4561
 20
-23.5721
 11
51.3546
 21
-23.5031
  0
LINE
  8
0
 10
51.3546
 20
-23.5031
 11
51.2567
 21
-23.4292
  0
LINE
  8
0
 10
51.2567
 20
-23.4292
 11
51.1624
 21
-23.3506
  0
LINE
  8
0
 10
51.1624
 20
-23.3506
 11
51.0722
 21
-23.2674
  0
LINE
  8
0
 10
51.0722
 20
-23.2674
 11
50.9862
 21
-23.1799
  0
LINE
  8
0
 10
50.9862
 20
-23.1799
 11
50.9045
 21
-23.0884
  0
LINE
  8
0
 10
50.9045
 20
-23.0884
 11
50.8274
 21
-22.9929
  0
LINE
  8
0
 10
50.8274
 20
-22.9929
 11
50.7551
 21
-22.8937
  0
LINE
  8
0
 10
50.7551
 20
-22.8937
 11
50.6878
 21
-22.7911
  0
LINE
  8
0
 10
50.6878
 20
-22.7911
 11
50.6256
 21
-22.6854
  0
LINE
  8
0
 10
50.6256
 20
-22.6854
 11
50.5686
 21
-22.5767
  0
LINE
  8
0
 10
50.5686
 20
-22.5767
 11
50.5171
 21
-22.4653
  0
LINE
  8
0
 10
50.5171
 20
-22.4653
 11
50.4711
 21
-22.3516
  0
LINE
  8
0
 10
50.4711
 20
-22.3516
 11
50.4307
 21
-22.2357
  0
LINE
  8
0
 10
50.4307
 20
-22.2357
 11
50.396
 21
-22.118
  0
LINE
  8
0
 10
50.396
 20
-22.118
 11
50.3672
 21
-21.9987
  0
LINE
  8
0
 10
50.3672
 20
-21.9987
 11
50.3442
 21
-21.8782
  0
LINE
  8
0
 10
50.3442
 20
-21.8782
 11
50.3272
 21
-21.7567
  0
LINE
  8
0
 10
50.3272
 20
-21.7567
 11
50.3162
 21
-21.6345
  0
LINE
  8
0
 10
50.3162
 20
-21.6345
 11
50.3111
 21
-21.5119
  0
LINE
  8
0
 10
50.3111
 20
-21.5119
 11
50.3121
 21
-21.3892
  0
LINE
  8
0
 10
50.3121
 20
-21.3892
 11
50.3192
 21
-21.2667
  0
LINE
  8
0
 10
50.3192
 20
-21.2667
 11
50.3322
 21
-21.1447
  0
LINE
  8
0
 10
50.3322
 20
-21.1447
 11
50.3512
 21
-21.0234
  0
LINE
  8
0
 10
50.3512
 20
-21.0234
 11
50.3761
 21
-20.9033
  0
LINE
  8
0
 10
50.3761
 20
-20.9033
 11
50.4069
 21
-20.7845
  0
LINE
  8
0
 10
50.4069
 20
-20.7845
 11
50.4435
 21
-20.6674
  0
LINE
  8
0
 10
50.4435
 20
-20.6674
 11
50.4858
 21
-20.5522
  0
LINE
  8
0
 10
50.4858
 20
-20.5522
 11
50.5337
 21
-20.4392
  0
LINE
  8
0
 10
50.5337
 20
-20.4392
 11
50.587
 21
-20.3287
  0
LINE
  8
0
 10
50.587
 20
-20.3287
 11
50.6458
 21
-20.221
  0
LINE
  8
0
 10
50.6458
 20
-20.221
 11
50.7097
 21
-20.1162
  0
LINE
  8
0
 10
50.7097
 20
-20.1162
 11
50.7787
 21
-20.0148
  0
LINE
  8
0
 10
50.7787
 20
-20.0148
 11
50.8526
 21
-19.9168
  0
LINE
  8
0
 10
50.8526
 20
-19.9168
 11
50.9312
 21
-19.8226
  0
LINE
  8
0
 10
50.9312
 20
-19.8226
 11
51.0144
 21
-19.7324
  0
LINE
  8
0
 10
51.0144
 20
-19.7324
 11
51.1018
 21
-19.6463
  0
LINE
  8
0
 10
51.1018
 20
-19.6463
 11
51.1934
 21
-19.5647
  0
LINE
  8
0
 10
51.1934
 20
-19.5647
 11
51.2889
 21
-19.4876
  0
LINE
  8
0
 10
51.2889
 20
-19.4876
 11
51.3881
 21
-19.4153
  0
LINE
  8
0
 10
51.3881
 20
-19.4153
 11
51.4906
 21
-19.348
  0
LINE
  8
0
 10
51.4906
 20
-19.348
 11
51.5964
 21
-19.2857
  0
LINE
  8
0
 10
51.5964
 20
-19.2857
 11
51.7051
 21
-19.2288
  0
LINE
  8
0
 10
51.7051
 20
-19.2288
 11
51.8164
 21
-19.1772
  0
LINE
  8
0
 10
51.8164
 20
-19.1772
 11
51.9302
 21
-19.1312
  0
LINE
  8
0
 10
51.9302
 20
-19.1312
 11
52.0461
 21
-19.0908
  0
LINE
  8
0
 10
52.0461
 20
-19.0908
 11
52.1638
 21
-19.0562
  0
LINE
  8
0
 10
52.1638
 20
-19.0562
 11
52.283
 21
-19.0273
  0
LINE
  8
0
 10
52.283
 20
-19.0273
 11
52.4036
 21
-19.0044
  0
LINE
  8
0
 10
52.4036
 20
-19.0044
 11
52.5251
 21
-18.9874
  0
LINE
  8
0
 10
52.5251
 20
-18.9874
 11
52.6473
 21
-18.9763
  0
LINE
  8
0
 10
52.6473
 20
-18.9763
 11
52.7699
 21
-18.9713
  0
LINE
  8
0
 10
52.7699
 20
-18.9713
 11
52.8926
 21
-18.9723
  0
LINE
  8
0
 10
52.8926
 20
-18.9723
 11
53.0151
 21
-18.9793
  0
LINE
  8
0
 10
53.0151
 20
-18.9793
 11
53.1371
 21
-18.9924
  0
LINE
  8
0
 10
53.1371
 20
-18.9924
 11
53.2584
 21
-19.0114
  0
LINE
  8
0
 10
53.2584
 20
-19.0114
 11
53.3785
 21
-19.0363
  0
LINE
  8
0
 10
53.3785
 20
-19.0363
 11
53.4973
 21
-19.0671
  0
LINE
  8
0
 10
53.4973
 20
-19.0671
 11
53.6144
 21
-19.1036
  0
LINE
  8
0
 10
53.6144
 20
-19.1036
 11
53.7296
 21
-19.1459
  0
LINE
  8
0
 10
53.7296
 20
-19.1459
 11
53.8426
 21
-19.1938
  0
LINE
  8
0
 10
53.8426
 20
-19.1938
 11
53.9531
 21
-19.2472
  0
LINE
  8
0
 10
53.9531
 20
-19.2472
 11
54.0608
 21
-19.3059
  0
LINE
  8
0
 10
54.0608
 20
-19.3059
 11
54.1655
 21
-19.3698
  0
LINE
  8
0
 10
54.1655
 20
-19.3698
 11
54.267
 21
-19.4389
  0
LINE
  8
0
 10
54.267
 20
-19.4389
 11
54.365
 21
-19.5128
  0
LINE
  8
0
 10
54.365
 20
-19.5128
 11
54.4592
 21
-19.5914
  0
LINE
  8
0
 10
54.4592
 20
-19.5914
 11
54.5494
 21
-19.6745
  0
LINE
  8
0
 10
54.5494
 20
-19.6745
 11
54.6355
 21
-19.762
  0
LINE
  8
0
 10
54.6355
 20
-19.762
 11
54.7171
 21
-19.8536
  0
LINE
  8
0
 10
54.7171
 20
-19.8536
 11
54.7942
 21
-19.9491
  0
LINE
  8
0
 10
54.7942
 20
-19.9491
 11
54.8665
 21
-20.0482
  0
LINE
  8
0
 10
54.8665
 20
-20.0482
 11
54.9338
 21
-20.1508
  0
LINE
  8
0
 10
54.9338
 20
-20.1508
 11
54.996
 21
-20.2566
  0
LINE
  8
0
 10
54.996
 20
-20.2566
 11
55.053
 21
-20.3652
  0
LINE
  8
0
 10
55.053
 20
-20.3652
 11
55.1046
 21
-20.4766
  0
LINE
  8
0
 10
55.1046
 20
-20.4766
 11
55.1506
 21
-20.5903
  0
LINE
  8
0
 10
55.1506
 20
-20.5903
 11
55.191
 21
-20.7062
  0
LINE
  8
0
 10
55.191
 20
-20.7062
 11
55.2256
 21
-20.8239
  0
LINE
  8
0
 10
55.2256
 20
-20.8239
 11
55.2545
 21
-20.9432
  0
LINE
  8
0
 10
55.2545
 20
-20.9432
 11
55.2774
 21
-21.0637
  0
LINE
  8
0
 10
55.2774
 20
-21.0637
 11
55.2944
 21
-21.1853
  0
LINE
  8
0
 10
55.2944
 20
-21.1853
 11
55.3055
 21
-21.3075
  0
LINE
  8
0
 10
55.3055
 20
-21.3075
 11
55.3105
 21
-21.4301
  0
LINE
  8
0
 10
55.3105
 20
-21.4301
 11
55.3095
 21
-21.5528
  0
LINE
  8
0
 10
55.3095
 20
-21.5528
 11
55.3025
 21
-21.6753
  0
LINE
  8
0
 10
55.3025
 20
-21.6753
 11
55.2894
 21
-21.7973
  0
LINE
  8
0
 10
55.2894
 20
-21.7973
 11
55.2704
 21
-21.9185
  0
LINE
  8
0
 10
55.2704
 20
-21.9185
 11
55.2455
 21
-22.0387
  0
LINE
  8
0
 10
55.2455
 20
-22.0387
 11
55.2147
 21
-22.1574
  0
LINE
  8
0
 10
55.2147
 20
-22.1574
 11
55.1781
 21
-22.2746
  0
LINE
  8
0
 10
55.1781
 20
-22.2746
 11
55.1359
 21
-22.3898
  0
LINE
  8
0
 10
55.1359
 20
-22.3898
 11
55.088
 21
-22.5027
  0
LINE
  8
0
 10
55.088
 20
-22.5027
 11
55.0346
 21
-22.6132
  0
LINE
  8
0
 10
55.0346
 20
-22.6132
 11
54.9759
 21
-22.721
  0
LINE
  8
0
 10
54.9759
 20
-22.721
 11
54.9119
 21
-22.8257
  0
LINE
  8
0
 10
54.9119
 20
-22.8257
 11
54.8429
 21
-22.9272
  0
LINE
  8
0
 10
54.8429
 20
-22.9272
 11
54.769
 21
-23.0251
  0
LINE
  8
0
 10
54.769
 20
-23.0251
 11
54.6904
 21
-23.1193
  0
LINE
  8
0
 10
54.6904
 20
-23.1193
 11
54.6073
 21
-23.2096
  0
LINE
  8
0
 10
54.6073
 20
-23.2096
 11
54.5198
 21
-23.2956
  0
LINE
  8
0
 10
54.5198
 20
-23.2956
 11
54.4282
 21
-23.3773
  0
LINE
  8
0
 10
54.4282
 20
-23.3773
 11
54.3327
 21
-23.4543
  0
LINE
  8
0
 10
54.3327
 20
-23.4543
 11
54.2336
 21
-23.5266
  0
LINE
  8
0
 10
54.2336
 20
-23.5266
 11
54.131
 21
-23.594
  0
LINE
  8
0
 10
54.131
 20
-23.594
 11
54.0252
 21
-23.6562
  0
LINE
  8
0
 10
54.0252
 20
-23.6562
 11
53.9165
 21
-23.7132
  0
LINE
  8
0
 10
53.9165
 20
-23.7132
 11
53.8052
 21
-23.7647
  0
LINE
  8
0
 10
53.8052
 20
-23.7647
 11
53.6914
 21
-23.8107
  0
LINE
  8
0
 10
53.6914
 20
-23.8107
 11
53.5756
 21
-23.8511
  0
LINE
  8
0
 10
53.5756
 20
-23.8511
 11
53.4579
 21
-23.8858
  0
LINE
  8
0
 10
53.4579
 20
-23.8858
 11
53.3386
 21
-23.9146
  0
LINE
  8
0
 10
53.3386
 20
-23.9146
 11
53.218
 21
-23.9376
  0
LINE
  8
0
 10
53.218
 20
-23.9376
 11
53.0965
 21
-23.9546
  0
LINE
  8
0
 10
53.0965
 20
-23.9546
 11
52.9743
 21
-23.9656
  0
LINE
  8
0
 10
52.9743
 20
-23.9656
 11
52.8517
 21
-23.9706
  0
LINE
  8
0
 10
52.8517
 20
-23.9706
 11
52.729
 21
-23.9696
  0
LINE
  8
0
 10
-45.1633
 20
-37.4947
 11
-45.2855
 21
-37.4836
  0
LINE
  8
0
 10
-45.2855
 20
-37.4836
 11
-45.4071
 21
-37.4666
  0
LINE
  8
0
 10
-45.4071
 20
-37.4666
 11
-45.5276
 21
-37.4437
  0
LINE
  8
0
 10
-45.5276
 20
-37.4437
 11
-45.6469
 21
-37.4148
  0
LINE
  8
0
 10
-45.6469
 20
-37.4148
 11
-45.7646
 21
-37.3802
  0
LINE
  8
0
 10
-45.7646
 20
-37.3802
 11
-45.8804
 21
-37.3398
  0
LINE
  8
0
 10
-45.8804
 20
-37.3398
 11
-45.9942
 21
-37.2938
  0
LINE
  8
0
 10
-45.9942
 20
-37.2938
 11
-46.1055
 21
-37.2422
  0
LINE
  8
0
 10
-46.1055
 20
-37.2422
 11
-46.2142
 21
-37.1852
  0
LINE
  8
0
 10
-46.2142
 20
-37.1852
 11
-46.32
 21
-37.123
  0
LINE
  8
0
 10
-46.32
 20
-37.123
 11
-46.4226
 21
-37.0557
  0
LINE
  8
0
 10
-46.4226
 20
-37.0557
 11
-46.5217
 21
-36.9834
  0
LINE
  8
0
 10
-46.5217
 20
-36.9834
 11
-46.6172
 21
-36.9063
  0
LINE
  8
0
 10
-46.6172
 20
-36.9063
 11
-46.7088
 21
-36.8247
  0
LINE
  8
0
 10
-46.7088
 20
-36.8247
 11
-46.7963
 21
-36.7386
  0
LINE
  8
0
 10
-46.7963
 20
-36.7386
 11
-46.8794
 21
-36.6484
  0
LINE
  8
0
 10
-46.8794
 20
-36.6484
 11
-46.958
 21
-36.5542
  0
LINE
  8
0
 10
-46.958
 20
-36.5542
 11
-47.0319
 21
-36.4562
  0
LINE
  8
0
 10
-47.0319
 20
-36.4562
 11
-47.1009
 21
-36.3548
  0
LINE
  8
0
 10
-47.1009
 20
-36.3548
 11
-47.1649
 21
-36.25
  0
LINE
  8
0
 10
-47.1649
 20
-36.25
 11
-47.2236
 21
-36.1423
  0
LINE
  8
0
 10
-47.2236
 20
-36.1423
 11
-47.277
 21
-36.0318
  0
LINE
  8
0
 10
-47.277
 20
-36.0318
 11
-47.3249
 21
-35.9188
  0
LINE
  8
0
 10
-47.3249
 20
-35.9188
 11
-47.3671
 21
-35.8036
  0
LINE
  8
0
 10
-47.3671
 20
-35.8036
 11
-47.4037
 21
-35.6865
  0
LINE
  8
0
 10
-47.4037
 20
-35.6865
 11
-47.4345
 21
-35.5677
  0
LINE
  8
0
 10
-47.4345
 20
-35.5677
 11
-47.4594
 21
-35.4476
  0
LINE
  8
0
 10
-47.4594
 20
-35.4476
 11
-47.4784
 21
-35.3263
  0
LINE
  8
0
 10
-47.4784
 20
-35.3263
 11
-47.4915
 21
-35.2043
  0
LINE
  8
0
 10
-47.4915
 20
-35.2043
 11
-47.4985
 21
-35.0818
  0
LINE
  8
0
 10
-47.4985
 20
-35.0818
 11
-47.4995
 21
-34.9591
  0
LINE
  8
0
 10
-47.4995
 20
-34.9591
 11
-47.4945
 21
-34.8365
  0
LINE
  8
0
 10
-47.4945
 20
-34.8365
 11
-47.4834
 21
-34.7143
  0
LINE
  8
0
 10
-47.4834
 20
-34.7143
 11
-47.4664
 21
-34.5928
  0
LINE
  8
0
 10
-47.4664
 20
-34.5928
 11
-47.4435
 21
-34.4722
  0
LINE
  8
0
 10
-47.4435
 20
-34.4722
 11
-47.4146
 21
-34.353
  0
LINE
  8
0
 10
-47.4146
 20
-34.353
 11
-47.38
 21
-34.2353
  0
LINE
  8
0
 10
-47.38
 20
-34.2353
 11
-47.3396
 21
-34.1194
  0
LINE
  8
0
 10
-47.3396
 20
-34.1194
 11
-47.2935
 21
-34.0056
  0
LINE
  8
0
 10
-47.2935
 20
-34.0056
 11
-47.242
 21
-33.8943
  0
LINE
  8
0
 10
-47.242
 20
-33.8943
 11
-47.185
 21
-33.7856
  0
LINE
  8
0
 10
-47.185
 20
-33.7856
 11
-47.1228
 21
-33.6799
  0
LINE
  8
0
 10
-47.1228
 20
-33.6799
 11
-47.0555
 21
-33.5773
  0
LINE
  8
0
 10
-47.0555
 20
-33.5773
 11
-46.9832
 21
-33.4781
  0
LINE
  8
0
 10
-46.9832
 20
-33.4781
 11
-46.9061
 21
-33.3826
  0
LINE
  8
0
 10
-46.9061
 20
-33.3826
 11
-46.8245
 21
-33.291
  0
LINE
  8
0
 10
-46.8245
 20
-33.291
 11
-46.7384
 21
-33.2036
  0
LINE
  8
0
 10
-46.7384
 20
-33.2036
 11
-46.6482
 21
-33.1204
  0
LINE
  8
0
 10
-46.6482
 20
-33.1204
 11
-46.554
 21
-33.0418
  0
LINE
  8
0
 10
-46.554
 20
-33.0418
 11
-46.456
 21
-32.9679
  0
LINE
  8
0
 10
-46.456
 20
-32.9679
 11
-46.3545
 21
-32.8989
  0
LINE
  8
0
 10
-46.3545
 20
-32.8989
 11
-46.2498
 21
-32.835
  0
LINE
  8
0
 10
-46.2498
 20
-32.835
 11
-46.1421
 21
-32.7762
  0
LINE
  8
0
 10
-46.1421
 20
-32.7762
 11
-46.0316
 21
-32.7229
  0
LINE
  8
0
 10
-46.0316
 20
-32.7229
 11
-45.9186
 21
-32.675
  0
LINE
  8
0
 10
-45.9186
 20
-32.675
 11
-45.8034
 21
-32.6327
  0
LINE
  8
0
 10
-45.8034
 20
-32.6327
 11
-45.6863
 21
-32.5961
  0
LINE
  8
0
 10
-45.6863
 20
-32.5961
 11
-45.5675
 21
-32.5653
  0
LINE
  8
0
 10
-45.5675
 20
-32.5653
 11
-45.4474
 21
-32.5404
  0
LINE
  8
0
 10
-45.4474
 20
-32.5404
 11
-45.3261
 21
-32.5214
  0
LINE
  8
0
 10
-45.3261
 20
-32.5214
 11
-45.2041
 21
-32.5084
  0
LINE
  8
0
 10
-45.2041
 20
-32.5084
 11
-45.0816
 21
-32.5014
  0
LINE
  8
0
 10
-45.0816
 20
-32.5014
 11
-44.9589
 21
-32.5004
  0
LINE
  8
0
 10
-44.9589
 20
-32.5004
 11
-44.8363
 21
-32.5054
  0
LINE
  8
0
 10
-44.8363
 20
-32.5054
 11
-44.7141
 21
-32.5164
  0
LINE
  8
0
 10
-44.7141
 20
-32.5164
 11
-44.5926
 21
-32.5334
  0
LINE
  8
0
 10
-44.5926
 20
-32.5334
 11
-44.472
 21
-32.5564
  0
LINE
  8
0
 10
-44.472
 20
-32.5564
 11
-44.3528
 21
-32.5852
  0
LINE
  8
0
 10
-44.3528
 20
-32.5852
 11
-44.2351
 21
-32.6199
  0
LINE
  8
0
 10
-44.2351
 20
-32.6199
 11
-44.1192
 21
-32.6602
  0
LINE
  8
0
 10
-44.1192
 20
-32.6602
 11
-44.0054
 21
-32.7063
  0
LINE
  8
0
 10
-44.0054
 20
-32.7063
 11
-43.8941
 21
-32.7578
  0
LINE
  8
0
 10
-43.8941
 20
-32.7578
 11
-43.7854
 21
-32.8148
  0
LINE
  8
0
 10
-43.7854
 20
-32.8148
 11
-43.6796
 21
-32.877
  0
LINE
  8
0
 10
-43.6796
 20
-32.877
 11
-43.5771
 21
-32.9444
  0
LINE
  8
0
 10
-43.5771
 20
-32.9444
 11
-43.4779
 21
-33.0166
  0
LINE
  8
0
 10
-43.4779
 20
-33.0166
 11
-43.3824
 21
-33.0937
  0
LINE
  8
0
 10
-43.3824
 20
-33.0937
 11
-43.2908
 21
-33.1754
  0
LINE
  8
0
 10
-43.2908
 20
-33.1754
 11
-43.2034
 21
-33.2614
  0
LINE
  8
0
 10
-43.2034
 20
-33.2614
 11
-43.1202
 21
-33.3517
  0
LINE
  8
0
 10
-43.1202
 20
-33.3517
 11
-43.0416
 21
-33.4459
  0
LINE
  8
0
 10
-43.0416
 20
-33.4459
 11
-42.9677
 21
-33.5438
  0
LINE
  8
0
 10
-42.9677
 20
-33.5438
 11
-42.8987
 21
-33.6453
  0
LINE
  8
0
 10
-42.8987
 20
-33.6453
 11
-42.8347
 21
-33.75
  0
LINE
  8
0
 10
-42.8347
 20
-33.75
 11
-42.776
 21
-33.8578
  0
LINE
  8
0
 10
-42.776
 20
-33.8578
 11
-42.7227
 21
-33.9682
  0
LINE
  8
0
 10
-42.7227
 20
-33.9682
 11
-42.6748
 21
-34.0812
  0
LINE
  8
0
 10
-42.6748
 20
-34.0812
 11
-42.6325
 21
-34.1964
  0
LINE
  8
0
 10
-42.6325
 20
-34.1964
 11
-42.5959
 21
-34.3136
  0
LINE
  8
0
 10
-42.5959
 20
-34.3136
 11
-42.5651
 21
-34.4323
  0
LINE
  8
0
 10
-42.5651
 20
-34.4323
 11
-42.5402
 21
-34.5525
  0
LINE
  8
0
 10
-42.5402
 20
-34.5525
 11
-42.5212
 21
-34.6737
  0
LINE
  8
0
 10
-42.5212
 20
-34.6737
 11
-42.5082
 21
-34.7957
  0
LINE
  8
0
 10
-42.5082
 20
-34.7957
 11
-42.5012
 21
-34.9182
  0
LINE
  8
0
 10
-42.5012
 20
-34.9182
 11
-42.5002
 21
-35.0409
  0
LINE
  8
0
 10
-42.5002
 20
-35.0409
 11
-42.5052
 21
-35.1635
  0
LINE
  8
0
 10
-42.5052
 20
-35.1635
 11
-42.5162
 21
-35.2857
  0
LINE
  8
0
 10
-42.5162
 20
-35.2857
 11
-42.5332
 21
-35.4073
  0
LINE
  8
0
 10
-42.5332
 20
-35.4073
 11
-42.5562
 21
-35.5278
  0
LINE
  8
0
 10
-42.5562
 20
-35.5278
 11
-42.585
 21
-35.6471
  0
LINE
  8
0
 10
-42.585
 20
-35.6471
 11
-42.6197
 21
-35.7648
  0
LINE
  8
0
 10
-42.6197
 20
-35.7648
 11
-42.66
 21
-35.8806
  0
LINE
  8
0
 10
-42.66
 20
-35.8806
 11
-42.7061
 21
-35.9944
  0
LINE
  8
0
 10
-42.7061
 20
-35.9944
 11
-42.7576
 21
-36.1057
  0
LINE
  8
0
 10
-42.7576
 20
-36.1057
 11
-42.8146
 21
-36.2144
  0
LINE
  8
0
 10
-42.8146
 20
-36.2144
 11
-42.8768
 21
-36.3202
  0
LINE
  8
0
 10
-42.8768
 20
-36.3202
 11
-42.9441
 21
-36.4228
  0
LINE
  8
0
 10
-42.9441
 20
-36.4228
 11
-43.0164
 21
-36.5219
  0
LINE
  8
0
 10
-43.0164
 20
-36.5219
 11
-43.0935
 21
-36.6174
  0
LINE
  8
0
 10
-43.0935
 20
-36.6174
 11
-43.1752
 21
-36.709
  0
LINE
  8
0
 10
-43.1752
 20
-36.709
 11
-43.2612
 21
-36.7965
  0
LINE
  8
0
 10
-43.2612
 20
-36.7965
 11
-43.3515
 21
-36.8796
  0
LINE
  8
0
 10
-43.3515
 20
-36.8796
 11
-43.4457
 21
-36.9582
  0
LINE
  8
0
 10
-43.4457
 20
-36.9582
 11
-43.5436
 21
-37.0321
  0
LINE
  8
0
 10
-43.5436
 20
-37.0321
 11
-43.6451
 21
-37.1011
  0
LINE
  8
0
 10
-43.6451
 20
-37.1011
 11
-43.7498
 21
-37.1651
  0
LINE
  8
0
 10
-43.7498
 20
-37.1651
 11
-43.8576
 21
-37.2238
  0
LINE
  8
0
 10
-43.8576
 20
-37.2238
 11
-43.968
 21
-37.2772
  0
LINE
  8
0
 10
-43.968
 20
-37.2772
 11
-44.081
 21
-37.3251
  0
LINE
  8
0
 10
-44.081
 20
-37.3251
 11
-44.1962
 21
-37.3673
  0
LINE
  8
0
 10
-44.1962
 20
-37.3673
 11
-44.3133
 21
-37.4039
  0
LINE
  8
0
 10
-44.3133
 20
-37.4039
 11
-44.4321
 21
-37.4347
  0
LINE
  8
0
 10
-44.4321
 20
-37.4347
 11
-44.5523
 21
-37.4596
  0
LINE
  8
0
 10
-44.5523
 20
-37.4596
 11
-44.6735
 21
-37.4786
  0
LINE
  8
0
 10
-44.6735
 20
-37.4786
 11
-44.7955
 21
-37.4917
  0
LINE
  8
0
 10
-44.7955
 20
-37.4917
 11
-44.918
 21
-37.4987
  0
LINE
  8
0
 10
-44.918
 20
-37.4987
 11
-45.0407
 21
-37.4997
  0
LINE
  8
0
 10
-45.0407
 20
-37.4997
 11
-45.1633
 21
-37.4947
  0
LINE
  8
0
 10
44.918
 20
-37.4987
 11
44.7955
 21
-37.4917
  0
LINE
  8
0
 10
44.7955
 20
-37.4917
 11
44.6735
 21
-37.4786
  0
LINE
  8
0
 10
44.6735
 20
-37.4786
 11
44.5523
 21
-37.4596
  0
LINE
  8
0
 10
44.5523
 20
-37.4596
 11
44.4321
 21
-37.4347
  0
LINE
  8
0
 10
44.4321
 20
-37.4347
 11
44.3133
 21
-37.4039
  0
LINE
  8
0
 10
44.3133
 20
-37.4039
 11
44.1962
 21
-37.3673
  0
LINE
  8
0
 10
44.1962
 20
-37.3673
 11
44.081
 21
-37.3251
  0
LINE
  8
0
 10
44.081
 20
-37.3251
 11
43.968
 21
-37.2772
  0
LINE
  8
0
 10
43.968
 20
-37.2772
 11
43.8576
 21
-37.2238
  0
LINE
  8
0
 10
43.8576
 20
-37.2238
 11
43.7498
 21
-37.1651
  0
LINE
  8
0
 10
43.7498
 20
-37.1651
 11
43.6451
 21
-37.1011
  0
LINE
  8
0
 10
43.6451
 20
-37.1011
 11
43.5436
 21
-37.0321
  0
LINE
  8
0
 10
43.5436
 20
-37.0321
 11
43.4457
 21
-36.9582
  0
LINE
  8
0
 10
43.4457
 20
-36.9582
 11
43.3515
 21
-36.8796
  0
LINE
  8
0
 10
43.3515
 20
-36.8796
 11
43.2612
 21
-36.7965
  0
LINE
  8
0
 10
43.2612
 20
-36.7965
 11
43.1752
 21
-36.709
  0
LINE
  8
0
 10
43.1752
 20
-36.709
 11
43.0935
 21
-36.6174
  0
LINE
  8
0
 10
43.0935
 20
-36.6174
 11
43.0164
 21
-36.5219
  0
LINE
  8
0
 10
43.0164
 20
-36.5219
 11
42.9441
 21
-36.4228
  0
LINE
  8
0
 10
42.9441
 20
-36.4228
 11
42.8768
 21
-36.3202
  0
LINE
  8
0
 10
42.8768
 20
-36.3202
 11
42.8146
 21
-36.2144
  0
LINE
  8
0
 10
42.8146
 20
-36.2144
 11
42.7576
 21
-36.1057
  0
LINE
  8
0
 10
42.7576
 20
-36.1057
 11
42.7061
 21
-35.9944
  0
LINE
  8
0
 10
42.7061
 20
-35.9944
 11
42.66
 21
-35.8806
  0
LINE
  8
0
 10
42.66
 20
-35.8806
 11
42.6197
 21
-35.7648
  0
LINE
  8
0
 10
42.6197
 20
-35.7648
 11
42.585
 21
-35.6471
  0
LINE
  8
0
 10
42.585
 20
-35.6471
 11
42.5562
 21
-35.5278
  0
LINE
  8
0
 10
42.5562
 20
-35.5278
 11
42.5332
 21
-35.4073
  0
LINE
  8
0
 10
42.5332
 20
-35.4073
 11
42.5162
 21
-35.2857
  0
LINE
  8
0
 10
42.5162
 20
-35.2857
 11
42.5052
 21
-35.1635
  0
LINE
  8
0
 10
42.5052
 20
-35.1635
 11
42.5002
 21
-35.0409
  0
LINE
  8
0
 10
42.5002
 20
-35.0409
 11
42.5012
 21
-34.9182
  0
LINE
  8
0
 10
42.5012
 20
-34.9182
 11
42.5082
 21
-34.7957
  0
LINE
  8
0
 10
42.5082
 20
-34.7957
 11
42.5212
 21
-34.6737
  0
LINE
  8
0
 10
42.5212
 20
-34.6737
 11
42.5402
 21
-34.5525
  0
LINE
  8
0
 10
42.5402
 20
-34.5525
 11
42.5651
 21
-34.4323
  0
LINE
  8
0
 10
42.5651
 20
-34.4323
 11
42.5959
 21
-34.3136
  0
LINE
  8
0
 10
42.5959
 20
-34.3136
 11
42.6325
 21
-34.1964
  0
LINE
  8
0
 10
42.6325
 20
-34.1964
 11
42.6748
 21
-34.0812
  0
LINE
  8
0
 10
42.6748
 20
-34.0812
 11
42.7227
 21
-33.9682
  0
LINE
  8
0
 10
42.7227
 20
-33.9682
 11
42.776
 21
-33.8578
  0
LINE
  8
0
 10
42.776
 20
-33.8578
 11
42.8347
 21
-33.75
  0
LINE
  8
0
 10
42.8347
 20
-33.75
 11
42.8987
 21
-33.6453
  0
LINE
  8
0
 10
42.8987
 20
-33.6453
 11
42.9677
 21
-33.5438
  0
LINE
  8
0
 10
42.9677
 20
-33.5438
 11
43.0416
 21
-33.4459
  0
LINE
  8
0
 10
43.0416
 20
-33.4459
 11
43.1202
 21
-33.3517
  0
LINE
  8
0
 10
43.1202
 20
-33.3517
 11
43.2034
 21
-33.2614
  0
LINE
  8
0
 10
43.2034
 20
-33.2614
 11
43.2908
 21
-33.1754
  0
LINE
  8
0
 10
43.2908
 20
-33.1754
 11
43.3824
 21
-33.0937
  0
LINE
  8
0
 10
43.3824
 20
-33.0937
 11
43.4779
 21
-33.0166
  0
LINE
  8
0
 10
43.4779
 20
-33.0166
 11
43.5771
 21
-32.9444
  0
LINE
  8
0
 10
43.5771
 20
-32.9444
 11
43.6796
 21
-32.877
  0
LINE
  8
0
 10
43.6796
 20
-32.877
 11
43.7854
 21
-32.8148
  0
LINE
  8
0
 10
43.7854
 20
-32.8148
 11
43.8941
 21
-32.7578
  0
LINE
  8
0
 10
43.8941
 20
-32.7578
 11
44.0054
 21
-32.7063
  0
LINE
  8
0
 10
44.0054
 20
-32.7063
 11
44.1192
 21
-32.6602
  0
LINE
  8
0
 10
44.1192
 20
-32.6602
 11
44.2351
 21
-32.6199
  0
LINE
  8
0
 10
44.2351
 20
-32.6199
 11
44.3528
 21
-32.5852
  0
LINE
  8
0
 10
44.3528
 20
-32.5852
 11
44.472
 21
-32.5564
  0
LINE
  8
0
 10
44.472
 20
-32.5564
 11
44.5926
 21
-32.5334
  0
LINE
  8
0
 10
44.5926
 20
-32.5334
 11
44.7141
 21
-32.5164
  0
LINE
  8
0
 10
44.7141
 20
-32.5164
 11
44.8363
 21
-32.5054
  0
LINE
  8
0
 10
44.8363
 20
-32.5054
 11
44.9589
 21
-32.5004
  0
LINE
  8
0
 10
44.9589
 20
-32.5004
 11
45.0816
 21
-32.5014
  0
LINE
  8
0
 10
45.0816
 20
-32.5014
 11
45.2041
 21
-32.5084
  0
LINE
  8
0
 10
45.2041
 20
-32.5084
 11
45.3261
 21
-32.5214
  0
LINE
  8
0
 10
45.3261
 20
-32.5214
 11
45.4474
 21
-32.5404
  0
LINE
  8
0
 10
45.4474
 20
-32.5404
 11
45.5675
 21
-32.5653
  0
LINE
  8
0
 10
45.5675
 20
-32.5653
 11
45.6863
 21
-32.5961
  0
LINE
  8
0
 10
45.6863
 20
-32.5961
 11
45.8034
 21
-32.6327
  0
LINE
  8
0
 10
45.8034
 20
-32.6327
 11
45.9186
 21
-32.675
  0
LINE
  8
0
 10
45.9186
 20
-32.675
 11
46.0316
 21
-32.7229
  0
LINE
  8
0
 10
46.0316
 20
-32.7229
 11
46.1421
 21
-32.7762
  0
LINE
  8
0
 10
46.1421
 20
-32.7762
 11
46.2498
 21
-32.835
  0
LINE
  8
0
 10
46.2498
 20
-32.835
 11
46.3545
 21
-32.8989
  0
LINE
  8
0
 10
46.3545
 20
-32.8989
 11
46.456
 21
-32.9679
  0
LINE
  8
0
 10
46.456
 20
-32.9679
 11
46.554
 21
-33.0418
  0
LINE
  8
0
 10
46.554
 20
-33.0418
 11
46.6482
 21
-33.1204
  0
LINE
  8
0
 10
46.6482
 20
-33.1204
 11
46.7384
 21
-33.2036
  0
LINE
  8
0
 10
46.7384
 20
-33.2036
 11
46.8245
 21
-33.291
  0
LINE
  8
0
 10
46.8245
 20
-33.291
 11
46.9061
 21
-33.3826
  0
LINE
  8
0
 10
46.9061
 20
-33.3826
 11
46.9832
 21
-33.4781
  0
LINE
  8
0
 10
46.9832
 20
-33.4781
 11
47.0555
 21
-33.5773
  0
LINE
  8
0
 10
47.0555
 20
-33.5773
 11
47.1228
 21
-33.6799
  0
LINE
  8
0
 10
47.1228
 20
-33.6799
 11
47.185
 21
-33.7856
  0
LINE
  8
0
 10
47.185
 20
-33.7856
 11
47.242
 21
-33.8943
  0
LINE
  8
0
 10
47.242
 20
-33.8943
 11
47.2935
 21
-34.0056
  0
LINE
  8
0
 10
47.2935
 20
-34.0056
 11
47.3396
 21
-34.1194
  0
LINE
  8
0
 10
47.3396
 20
-34.1194
 11
47.38
 21
-34.2353
  0
LINE
  8
0
 10
47.38
 20
-34.2353
 11
47.4146
 21
-34.353
  0
LINE
  8
0
 10
47.4146
 20
-34.353
 11
47.4435
 21
-34.4722
  0
LINE
  8
0
 10
47.4435
 20
-34.4722
 11
47.4664
 21
-34.5928
  0
LINE
  8
0
 10
47.4664
 20
-34.5928
 11
47.4834
 21
-34.7143
  0
LINE
  8
0
 10
47.4834
 20
-34.7143
 11
47.4945
 21
-34.8365
  0
LINE
  8
0
 10
47.4945
 20
-34.8365
 11
47.4995
 21
-34.9591
  0
LINE
  8
0
 10
47.4995
 20
-34.9591
 11
47.4985
 21
-35.0818
  0
LINE
  8
0
 10
47.4985
 20
-35.0818
 11
47.4915
 21
-35.2043
  0
LINE
  8
0
 10
47.4915
 20
-35.2043
 11
47.4784
 21
-35.3263
  0
LINE
  8
0
 10
47.4784
 20
-35.3263
 11
47.4594
 21
-35.4476
  0
LINE
  8
0
 10
47.4594
 20
-35.4476
 11
47.4345
 21
-35.5677
  0
LINE
  8
0
 10
47.4345
 20
-35.5677
 11
47.4037
 21
-35.6865
  0
LINE
  8
0
 10
47.4037
 20
-35.6865
 11
47.3671
 21
-35.8036
  0
LINE
  8
0
 10
47.3671
 20
-35.8036
 11
47.3249
 21
-35.9188
  0
LINE
  8
0
 10
47.3249
 20
-35.9188
 11
47.277
 21
-36.0318
  0
LINE
  8
0
 10
47.277
 20
-36.0318
 11
47.2236
 21
-36.1423
  0
LINE
  8
0
 10
47.2236
 20
-36.1423
 11
47.1649
 21
-36.25
  0
LINE
  8
0
 10
47.1649
 20
-36.25
 11
47.1009
 21
-36.3548
  0
LINE
  8
0
 10
47.1009
 20
-36.3548
 11
47.0319
 21
-36.4562
  0
LINE
  8
0
 10
47.0319
 20
-36.4562
 11
46.958
 21
-36.5542
  0
LINE
  8
0
 10
46.958
 20
-36.5542
 11
46.8794
 21
-36.6484
  0
LINE
  8
0
 10
46.8794
 20
-36.6484
 11
46.7963
 21
-36.7386
  0
LINE
  8
0
 10
46.7963
 20
-36.7386
 11
46.7088
 21
-36.8247
  0
LINE
  8
0
 10
46.7088
 20
-36.8247
 11
46.6172
 21
-36.9063
  0
LINE
  8
0
 10
46.6172
 20
-36.9063
 11
46.5217
 21
-36.9834
  0
LINE
  8
0
 10
46.5217
 20
-36.9834
 11
46.4226
 21
-37.0557
  0
LINE
  8
0
 10
46.4226
 20
-37.0557
 11
46.32
 21
-37.123
  0
LINE
  8
0
 10
46.32
 20
-37.123
 11
46.2142
 21
-37.1852
  0
LINE
  8
0
 10
46.2142
 20
-37.1852
 11
46.1055
 21
-37.2422
  0
LINE
  8
0
 10
46.1055
 20
-37.2422
 11
45.9942
 21
-37.2938
  0
LINE
  8
0
 10
45.9942
 20
-37.2938
 11
45.8804
 21
-37.3398
  0
LINE
  8
0
 10
45.8804
 20
-37.3398
 11
45.7646
 21
-37.3802
  0
LINE
  8
0
 10
45.7646
 20
-37.3802
 11
45.6469
 21
-37.4148
  0
LINE
  8
0
 10
45.6469
 20
-37.4148
 11
45.5276
 21
-37.4437
  0
LINE
  8
0
 10
45.5276
 20
-37.4437
 11
45.4071
 21
-37.4666
  0
LINE
  8
0
 10
45.4071
 20
-37.4666
 11
45.2855
 21
-37.4836
  0
LINE
  8
0
 10
45.2855
 20
-37.4836
 11
45.1633
 21
-37.4947
  0
LINE
  8
0
 10
45.1633
 20
-37.4947
 11
45.0407
 21
-37.4997
  0
LINE
  8
0
 10
45.0407
 20
-37.4997
 11
44.918
 21
-37.4987
  0
LINE
  8
0
 10
21.7226
 20
-41.0334
 11
21.6654
 21
-40.9693
  0
LINE
  8
0
 10
21.6654
 20
-40.9693
 11
21.6115
 21
-40.9024
  0
LINE
  8
0
 10
21.6115
 20
-40.9024
 11
21.5609
 21
-40.833
  0
LINE
  8
0
 10
21.5609
 20
-40.833
 11
21.5137
 21
-40.7612
  0
LINE
  8
0
 10
21.5137
 20
-40.7612
 11
21.4702
 21
-40.6872
  0
LINE
  8
0
 10
21.4702
 20
-40.6872
 11
21.4303
 21
-40.6111
  0
LINE
  8
0
 10
21.4303
 20
-40.6111
 11
21.3942
 21
-40.5331
  0
LINE
  8
0
 10
21.3942
 20
-40.5331
 11
21.362
 21
-40.4535
  0
LINE
  8
0
 10
21.362
 20
-40.4535
 11
21.3337
 21
-40.3724
  0
LINE
  8
0
 10
21.3337
 20
-40.3724
 11
21.3095
 21
-40.29
  0
LINE
  8
0
 10
21.3095
 20
-40.29
 11
21.2893
 21
-40.2065
  0
LINE
  8
0
 10
21.2893
 20
-40.2065
 11
21.2732
 21
-40.1221
  0
LINE
  8
0
 10
21.2732
 20
-40.1221
 11
21.2613
 21
-40.0371
  0
LINE
  8
0
 10
21.2613
 20
-40.0371
 11
21.2536
 21
-39.9515
  0
LINE
  8
0
 10
21.2536
 20
-39.9515
 11
21.2501
 21
-39.8657
  0
LINE
  8
0
 10
21.2501
 20
-39.8657
 11
21.2508
 21
-39.7798
  0
LINE
  8
0
 10
21.2508
 20
-39.7798
 11
21.2557
 21
-39.6941
  0
LINE
  8
0
 10
21.2557
 20
-39.6941
 11
21.2648
 21
-39.6087
  0
LINE
  8
0
 10
21.2648
 20
-39.6087
 11
21.2781
 21
-39.5238
  0
LINE
  8
0
 10
21.2781
 20
-39.5238
 11
21.2956
 21
-39.4397
  0
LINE
  8
0
 10
21.2956
 20
-39.4397
 11
21.3171
 21
-39.3566
  0
LINE
  8
0
 10
21.3171
 20
-39.3566
 11
21.3427
 21
-39.2746
  0
LINE
  8
0
 10
21.3427
 20
-39.2746
 11
21.3723
 21
-39.1939
  0
LINE
  8
0
 10
21.3723
 20
-39.1939
 11
21.4058
 21
-39.1148
  0
LINE
  8
0
 10
21.4058
 20
-39.1148
 11
21.4432
 21
-39.0375
  0
LINE
  8
0
 10
21.4432
 20
-39.0375
 11
21.4843
 21
-38.9621
  0
LINE
  8
0
 10
21.4843
 20
-38.9621
 11
21.5291
 21
-38.8888
  0
LINE
  8
0
 10
21.5291
 20
-38.8888
 11
21.5774
 21
-38.8177
  0
LINE
  8
0
 10
21.5774
 20
-38.8177
 11
21.6291
 21
-38.7492
  0
LINE
  8
0
 10
21.6291
 20
-38.7492
 11
21.6841
 21
-38.6832
  0
LINE
  8
0
 10
21.6841
 20
-38.6832
 11
21.7423
 21
-38.6201
  0
LINE
  8
0
 10
21.7423
 20
-38.6201
 11
21.8036
 21
-38.5598
  0
LINE
  8
0
 10
21.8036
 20
-38.5598
 11
21.8677
 21
-38.5027
  0
LINE
  8
0
 10
21.8677
 20
-38.5027
 11
21.9345
 21
-38.4487
  0
LINE
  8
0
 10
21.9345
 20
-38.4487
 11
22.0039
 21
-38.3981
  0
LINE
  8
0
 10
22.0039
 20
-38.3981
 11
22.0757
 21
-38.351
  0
LINE
  8
0
 10
22.0757
 20
-38.351
 11
22.1498
 21
-38.3074
  0
LINE
  8
0
 10
22.1498
 20
-38.3074
 11
22.2258
 21
-38.2675
  0
LINE
  8
0
 10
22.2258
 20
-38.2675
 11
22.3038
 21
-38.2315
  0
LINE
  8
0
 10
22.3038
 20
-38.2315
 11
22.3834
 21
-38.1992
  0
LINE
  8
0
 10
22.3834
 20
-38.1992
 11
22.4645
 21
-38.171
  0
LINE
  8
0
 10
22.4645
 20
-38.171
 11
22.5469
 21
-38.1467
  0
LINE
  8
0
 10
22.5469
 20
-38.1467
 11
22.6304
 21
-38.1265
  0
LINE
  8
0
 10
22.6304
 20
-38.1265
 11
22.7148
 21
-38.1105
  0
LINE
  8
0
 10
22.7148
 20
-38.1105
 11
22.7999
 21
-38.0985
  0
LINE
  8
0
 10
22.7999
 20
-38.0985
 11
22.8854
 21
-38.0908
  0
LINE
  8
0
 10
22.8854
 20
-38.0908
 11
22.9712
 21
-38.0873
  0
LINE
  8
0
 10
22.9712
 20
-38.0873
 11
23.0571
 21
-38.088
  0
LINE
  8
0
 10
23.0571
 20
-38.088
 11
23.1429
 21
-38.0929
  0
LINE
  8
0
 10
23.1429
 20
-38.0929
 11
23.2283
 21
-38.1021
  0
LINE
  8
0
 10
23.2283
 20
-38.1021
 11
23.3131
 21
-38.1153
  0
LINE
  8
0
 10
23.3131
 20
-38.1153
 11
23.3972
 21
-38.1328
  0
LINE
  8
0
 10
23.3972
 20
-38.1328
 11
23.4804
 21
-38.1543
  0
LINE
  8
0
 10
23.4804
 20
-38.1543
 11
23.5624
 21
-38.1799
  0
LINE
  8
0
 10
23.5624
 20
-38.1799
 11
23.643
 21
-38.2095
  0
LINE
  8
0
 10
23.643
 20
-38.2095
 11
23.7221
 21
-38.2431
  0
LINE
  8
0
 10
23.7221
 20
-38.2431
 11
23.7994
 21
-38.2804
  0
LINE
  8
0
 10
23.7994
 20
-38.2804
 11
23.8748
 21
-38.3215
  0
LINE
  8
0
 10
23.8748
 20
-38.3215
 11
23.9482
 21
-38.3663
  0
LINE
  8
0
 10
23.9482
 20
-38.3663
 11
24.0192
 21
-38.4146
  0
LINE
  8
0
 10
24.0192
 20
-38.4146
 11
24.0878
 21
-38.4663
  0
LINE
  8
0
 10
24.0878
 20
-38.4663
 11
24.1537
 21
-38.5214
  0
LINE
  8
0
 10
24.1537
 20
-38.5214
 11
24.2169
 21
-38.5796
  0
LINE
  8
0
 10
24.2169
 20
-38.5796
 11
24.2771
 21
-38.6408
  0
LINE
  8
0
 10
24.2771
 20
-38.6408
 11
24.3343
 21
-38.7049
  0
LINE
  8
0
 10
24.3343
 20
-38.7049
 11
24.3882
 21
-38.7717
  0
LINE
  8
0
 10
24.3882
 20
-38.7717
 11
24.4388
 21
-38.8412
  0
LINE
  8
0
 10
24.4388
 20
-38.8412
 11
24.4859
 21
-38.913
  0
LINE
  8
0
 10
24.4859
 20
-38.913
 11
24.5295
 21
-38.987
  0
LINE
  8
0
 10
24.5295
 20
-38.987
 11
24.5694
 21
-39.0631
  0
LINE
  8
0
 10
24.5694
 20
-39.0631
 11
24.6055
 21
-39.141
  0
LINE
  8
0
 10
24.6055
 20
-39.141
 11
24.6377
 21
-39.2206
  0
LINE
  8
0
 10
24.6377
 20
-39.2206
 11
24.666
 21
-39.3017
  0
LINE
  8
0
 10
24.666
 20
-39.3017
 11
24.6902
 21
-39.3841
  0
LINE
  8
0
 10
24.6902
 20
-39.3841
 11
24.7104
 21
-39.4676
  0
LINE
  8
0
 10
24.7104
 20
-39.4676
 11
24.7265
 21
-39.552
  0
LINE
  8
0
 10
24.7265
 20
-39.552
 11
24.7384
 21
-39.6371
  0
LINE
  8
0
 10
24.7384
 20
-39.6371
 11
24.7461
 21
-39.7226
  0
LINE
  8
0
 10
24.7461
 20
-39.7226
 11
24.7496
 21
-39.8084
  0
LINE
  8
0
 10
24.7496
 20
-39.8084
 11
24.7489
 21
-39.8943
  0
LINE
  8
0
 10
24.7489
 20
-39.8943
 11
24.744
 21
-39.9801
  0
LINE
  8
0
 10
24.744
 20
-39.9801
 11
24.7349
 21
-40.0655
  0
LINE
  8
0
 10
24.7349
 20
-40.0655
 11
24.7216
 21
-40.1504
  0
LINE
  8
0
 10
24.7216
 20
-40.1504
 11
24.7041
 21
-40.2345
  0
LINE
  8
0
 10
24.7041
 20
-40.2345
 11
24.6826
 21
-40.3176
  0
LINE
  8
0
 10
24.6826
 20
-40.3176
 11
24.657
 21
-40.3996
  0
LINE
  8
0
 10
24.657
 20
-40.3996
 11
24.6274
 21
-40.4802
  0
LINE
  8
0
 10
24.6274
 20
-40.4802
 11
24.5939
 21
-40.5593
  0
LINE
  8
0
 10
24.5939
 20
-40.5593
 11
24.5565
 21
-40.6367
  0
LINE
  8
0
 10
24.5565
 20
-40.6367
 11
24.5154
 21
-40.7121
  0
LINE
  8
0
 10
24.5154
 20
-40.7121
 11
24.4706
 21
-40.7854
  0
LINE
  8
0
 10
24.4706
 20
-40.7854
 11
24.4223
 21
-40.8564
  0
LINE
  8
0
 10
24.4223
 20
-40.8564
 11
24.3706
 21
-40.925
  0
LINE
  8
0
 10
24.3706
 20
-40.925
 11
24.3156
 21
-40.9909
  0
LINE
  8
0
 10
24.3156
 20
-40.9909
 11
24.2574
 21
-41.0541
  0
LINE
  8
0
 10
24.2574
 20
-41.0541
 11
24.1961
 21
-41.1143
  0
LINE
  8
0
 10
24.1961
 20
-41.1143
 11
24.132
 21
-41.1715
  0
LINE
  8
0
 10
24.132
 20
-41.1715
 11
24.0652
 21
-41.2254
  0
LINE
  8
0
 10
24.0652
 20
-41.2254
 11
23.9958
 21
-41.276
  0
LINE
  8
0
 10
23.9958
 20
-41.276
 11
23.924
 21
-41.3232
  0
LINE
  8
0
 10
23.924
 20
-41.3232
 11
23.8499
 21
-41.3667
  0
LINE
  8
0
 10
23.8499
 20
-41.3667
 11
23.7738
 21
-41.4066
  0
LINE
  8
0
 10
23.7738
 20
-41.4066
 11
23.6959
 21
-41.4427
  0
LINE
  8
0
 10
23.6959
 20
-41.4427
 11
23.6163
 21
-41.4749
  0
LINE
  8
0
 10
23.6163
 20
-41.4749
 11
23.5352
 21
-41.5032
  0
LINE
  8
0
 10
23.5352
 20
-41.5032
 11
23.4528
 21
-41.5275
  0
LINE
  8
0
 10
23.4528
 20
-41.5275
 11
23.3693
 21
-41.5476
  0
LINE
  8
0
 10
23.3693
 20
-41.5476
 11
23.2849
 21
-41.5637
  0
LINE
  8
0
 10
23.2849
 20
-41.5637
 11
23.1998
 21
-41.5756
  0
LINE
  8
0
 10
23.1998
 20
-41.5756
 11
23.1143
 21
-41.5833
  0
LINE
  8
0
 10
23.1143
 20
-41.5833
 11
23.0285
 21
-41.5868
  0
LINE
  8
0
 10
23.0285
 20
-41.5868
 11
22.9426
 21
-41.5861
  0
LINE
  8
0
 10
22.9426
 20
-41.5861
 11
22.8568
 21
-41.5812
  0
LINE
  8
0
 10
22.8568
 20
-41.5812
 11
22.7714
 21
-41.5721
  0
LINE
  8
0
 10
22.7714
 20
-41.5721
 11
22.6866
 21
-41.5588
  0
LINE
  8
0
 10
22.6866
 20
-41.5588
 11
22.6025
 21
-41.5414
  0
LINE
  8
0
 10
22.6025
 20
-41.5414
 11
22.5193
 21
-41.5198
  0
LINE
  8
0
 10
22.5193
 20
-41.5198
 11
22.4373
 21
-41.4942
  0
LINE
  8
0
 10
22.4373
 20
-41.4942
 11
22.3567
 21
-41.4646
  0
LINE
  8
0
 10
22.3567
 20
-41.4646
 11
22.2776
 21
-41.4311
  0
LINE
  8
0
 10
22.2776
 20
-41.4311
 11
22.2003
 21
-41.3937
  0
LINE
  8
0
 10
22.2003
 20
-41.3937
 11
22.1248
 21
-41.3526
  0
LINE
  8
0
 10
22.1248
 20
-41.3526
 11
22.0515
 21
-41.3079
  0
LINE
  8
0
 10
22.0515
 20
-41.3079
 11
21.9805
 21
-41.2596
  0
LINE
  8
0
 10
21.9805
 20
-41.2596
 11
21.9119
 21
-41.2078
  0
LINE
  8
0
 10
21.9119
 20
-41.2078
 11
21.846
 21
-41.1528
  0
LINE
  8
0
 10
21.846
 20
-41.1528
 11
21.7828
 21
-41.0946
  0
LINE
  8
0
 10
21.7828
 20
-41.0946
 11
21.7226
 21
-41.0334
  0
LINE
  8
0
 10
139.865
 20
-57.7467
 11
139.73
 21
-57.7368
  0
LINE
  8
0
 10
139.73
 20
-57.7368
 11
139.596
 21
-57.7202
  0
LINE
  8
0
 10
139.596
 20
-57.7202
 11
139.464
 21
-57.6972
  0
LINE
  8
0
 10
139.464
 20
-57.6972
 11
139.332
 21
-57.6676
  0
LINE
  8
0
 10
139.332
 20
-57.6676
 11
139.202
 21
-57.6316
  0
LINE
  8
0
 10
139.202
 20
-57.6316
 11
139.074
 21
-57.5892
  0
LINE
  8
0
 10
139.074
 20
-57.5892
 11
138.948
 21
-57.5407
  0
LINE
  8
0
 10
138.948
 20
-57.5407
 11
138.824
 21
-57.486
  0
LINE
  8
0
 10
138.824
 20
-57.486
 11
138.704
 21
-57.4253
  0
LINE
  8
0
 10
138.704
 20
-57.4253
 11
138.586
 21
-57.3587
  0
LINE
  8
0
 10
138.586
 20
-57.3587
 11
138.472
 21
-57.2865
  0
LINE
  8
0
 10
138.472
 20
-57.2865
 11
138.362
 21
-57.2088
  0
LINE
  8
0
 10
138.362
 20
-57.2088
 11
138.255
 21
-57.1258
  0
LINE
  8
0
 10
138.255
 20
-57.1258
 11
138.153
 21
-57.0376
  0
LINE
  8
0
 10
138.153
 20
-57.0376
 11
138.055
 21
-56.9445
  0
LINE
  8
0
 10
138.055
 20
-56.9445
 11
137.962
 21
-56.8468
  0
LINE
  8
0
 10
137.962
 20
-56.8468
 11
137.874
 21
-56.7446
  0
LINE
  8
0
 10
137.874
 20
-56.7446
 11
137.791
 21
-56.6382
  0
LINE
  8
0
 10
137.791
 20
-56.6382
 11
137.713
 21
-56.5278
  0
LINE
  8
0
 10
137.713
 20
-56.5278
 11
137.641
 21
-56.4138
  0
LINE
  8
0
 10
137.641
 20
-56.4138
 11
137.575
 21
-56.2963
  0
LINE
  8
0
 10
137.575
 20
-56.2963
 11
137.514
 21
-56.1758
  0
LINE
  8
0
 10
137.514
 20
-56.1758
 11
137.459
 21
-56.0524
  0
LINE
  8
0
 10
137.459
 20
-56.0524
 11
137.411
 21
-55.9264
  0
LINE
  8
0
 10
137.411
 20
-55.9264
 11
137.368
 21
-55.7983
  0
LINE
  8
0
 10
137.368
 20
-55.7983
 11
137.332
 21
-55.6682
  0
LINE
  8
0
 10
137.332
 20
-55.6682
 11
137.303
 21
-55.5365
  0
LINE
  8
0
 10
137.303
 20
-55.5365
 11
137.28
 21
-55.4035
  0
LINE
  8
0
 10
137.28
 20
-55.4035
 11
137.263
 21
-55.2695
  0
LINE
  8
0
 10
137.263
 20
-55.2695
 11
137.253
 21
-55.1349
  0
LINE
  8
0
 10
137.253
 20
-55.1349
 11
137.25
 21
-55
  0
LINE
  8
0
 10
137.25
 20
-55
 11
137.253
 21
-54.8651
  0
LINE
  8
0
 10
137.253
 20
-54.8651
 11
137.263
 21
-54.7305
  0
LINE
  8
0
 10
137.263
 20
-54.7305
 11
137.28
 21
-54.5965
  0
LINE
  8
0
 10
137.28
 20
-54.5965
 11
137.303
 21
-54.4635
  0
LINE
  8
0
 10
137.303
 20
-54.4635
 11
137.332
 21
-54.3318
  0
LINE
  8
0
 10
137.332
 20
-54.3318
 11
137.368
 21
-54.2017
  0
LINE
  8
0
 10
137.368
 20
-54.2017
 11
137.411
 21
-54.0735
  0
LINE
  8
0
 10
137.411
 20
-54.0735
 11
137.459
 21
-53.9476
  0
LINE
  8
0
 10
137.459
 20
-53.9476
 11
137.514
 21
-53.8242
  0
LINE
  8
0
 10
137.514
 20
-53.8242
 11
137.575
 21
-53.7037
  0
LINE
  8
0
 10
137.575
 20
-53.7037
 11
137.641
 21
-53.5862
  0
LINE
  8
0
 10
137.641
 20
-53.5862
 11
137.713
 21
-53.4722
  0
LINE
  8
0
 10
137.713
 20
-53.4722
 11
137.791
 21
-53.3618
  0
LINE
  8
0
 10
137.791
 20
-53.3618
 11
137.874
 21
-53.2554
  0
LINE
  8
0
 10
137.874
 20
-53.2554
 11
137.962
 21
-53.1532
  0
LINE
  8
0
 10
137.962
 20
-53.1532
 11
138.055
 21
-53.0555
  0
LINE
  8
0
 10
138.055
 20
-53.0555
 11
138.153
 21
-52.9624
  0
LINE
  8
0
 10
138.153
 20
-52.9624
 11
138.255
 21
-52.8742
  0
LINE
  8
0
 10
138.255
 20
-52.8742
 11
138.362
 21
-52.7912
  0
LINE
  8
0
 10
138.362
 20
-52.7912
 11
138.472
 21
-52.7135
  0
LINE
  8
0
 10
138.472
 20
-52.7135
 11
138.586
 21
-52.6412
  0
LINE
  8
0
 10
138.586
 20
-52.6412
 11
138.704
 21
-52.5747
  0
LINE
  8
0
 10
138.704
 20
-52.5747
 11
138.824
 21
-52.514
  0
LINE
  8
0
 10
138.824
 20
-52.514
 11
138.948
 21
-52.4593
  0
LINE
  8
0
 10
138.948
 20
-52.4593
 11
139.074
 21
-52.4108
  0
LINE
  8
0
 10
139.074
 20
-52.4108
 11
139.202
 21
-52.3684
  0
LINE
  8
0
 10
139.202
 20
-52.3684
 11
139.332
 21
-52.3324
  0
LINE
  8
0
 10
139.332
 20
-52.3324
 11
139.464
 21
-52.3028
  0
LINE
  8
0
 10
139.464
 20
-52.3028
 11
139.596
 21
-52.2798
  0
LINE
  8
0
 10
139.596
 20
-52.2798
 11
139.73
 21
-52.2632
  0
LINE
  8
0
 10
139.73
 20
-52.2632
 11
139.865
 21
-52.2533
  0
LINE
  8
0
 10
139.865
 20
-52.2533
 11
140
 21
-52.25
  0
LINE
  8
0
 10
140
 20
-52.25
 11
140.135
 21
-52.2533
  0
LINE
  8
0
 10
140.135
 20
-52.2533
 11
140.27
 21
-52.2632
  0
LINE
  8
0
 10
140.27
 20
-52.2632
 11
140.404
 21
-52.2798
  0
LINE
  8
0
 10
140.404
 20
-52.2798
 11
140.536
 21
-52.3028
  0
LINE
  8
0
 10
140.536
 20
-52.3028
 11
140.668
 21
-52.3324
  0
LINE
  8
0
 10
140.668
 20
-52.3324
 11
140.798
 21
-52.3684
  0
LINE
  8
0
 10
140.798
 20
-52.3684
 11
140.926
 21
-52.4108
  0
LINE
  8
0
 10
140.926
 20
-52.4108
 11
141.052
 21
-52.4593
  0
LINE
  8
0
 10
141.052
 20
-52.4593
 11
141.176
 21
-52.514
  0
LINE
  8
0
 10
141.176
 20
-52.514
 11
141.296
 21
-52.5747
  0
LINE
  8
0
 10
141.296
 20
-52.5747
 11
141.414
 21
-52.6412
  0
LINE
  8
0
 10
141.414
 20
-52.6412
 11
141.528
 21
-52.7135
  0
LINE
  8
0
 10
141.528
 20
-52.7135
 11
141.638
 21
-52.7912
  0
LINE
  8
0
 10
141.638
 20
-52.7912
 11
141.745
 21
-52.8742
  0
LINE
  8
0
 10
141.745
 20
-52.8742
 11
141.847
 21
-52.9624
  0
LINE
  8
0
 10
141.847
 20
-52.9624
 11
141.945
 21
-53.0555
  0
LINE
  8
0
 10
141.945
 20
-53.0555
 11
142.038
 21
-53.1532
  0
LINE
  8
0
 10
142.038
 20
-53.1532
 11
142.126
 21
-53.2554
  0
LINE
  8
0
 10
142.126
 20
-53.2554
 11
142.209
 21
-53.3618
  0
LINE
  8
0
 10
142.209
 20
-53.3618
 11
142.287
 21
-53.4722
  0
LINE
  8
0
 10
142.287
 20
-53.4722
 11
142.359
 21
-53.5862
  0
LINE
  8
0
 10
142.359
 20
-53.5862
 11
142.425
 21
-53.7037
  0
LINE
  8
0
 10
142.425
 20
-53.7037
 11
142.486
 21
-53.8242
  0
LINE
  8
0
 10
142.486
 20
-53.8242
 11
142.541
 21
-53.9476
  0
LINE
  8
0
 10
142.541
 20
-53.9476
 11
142.589
 21
-54.0735
  0
LINE
  8
0
 10
142.589
 20
-54.0735
 11
142.632
 21
-54.2017
  0
LINE
  8
0
 10
142.632
 20
-54.2017
 11
142.668
 21
-54.3318
  0
LINE
  8
0
 10
142.668
 20
-54.3318
 11
142.697
 21
-54.4635
  0
LINE
  8
0
 10
142.697
 20
-54.4635
 11
142.72
 21
-54.5965
  0
LINE
  8
0
 10
142.72
 20
-54.5965
 11
142.737
 21
-54.7305
  0
LINE
  8
0
 10
142.737
 20
-54.7305
 11
142.747
 21
-54.8651
  0
LINE
  8
0
 10
142.747
 20
-54.8651
 11
142.75
 21
-55
  0
LINE
  8
0
 10
142.75
 20
-55
 11
142.747
 21
-55.1349
  0
LINE
  8
0
 10
142.747
 20
-55.1349
 11
142.737
 21
-55.2695
  0
LINE
  8
0
 10
142.737
 20
-55.2695
 11
142.72
 21
-55.4035
  0
LINE
  8
0
 10
142.72
 20
-55.4035
 11
142.697
 21
-55.5365
  0
LINE
  8
0
 10
142.697
 20
-55.5365
 11
142.668
 21
-55.6682
  0
LINE
  8
0
 10
142.668
 20
-55.6682
 11
142.632
 21
-55.7983
  0
LINE
  8
0
 10
142.632
 20
-55.7983
 11
142.589
 21
-55.9264
  0
LINE
  8
0
 10
142.589
 20
-55.9264
 11
142.541
 21
-56.0524
  0
LINE
  8
0
 10
142.541
 20
-56.0524
 11
142.486
 21
-56.1758
  0
LINE
  8
0
 10
142.486
 20
-56.1758
 11
142.425
 21
-56.2963
  0
LINE
  8
0
 10
142.425
 20
-56.2963
 11
142.359
 21
-56.4138
  0
LINE
  8
0
 10
142.359
 20
-56.4138
 11
142.287
 21
-56.5278
  0
LINE
  8
0
 10
142.287
 20
-56.5278
 11
142.209
 21
-56.6382
  0
LINE
  8
0
 10
142.209
 20
-56.6382
 11
142.126
 21
-56.7446
  0
LINE
  8
0
 10
142.126
 20
-56.7446
 11
142.038
 21
-56.8468
  0
LINE
  8
0
 10
142.038
 20
-56.8468
 11
141.945
 21
-56.9445
  0
LINE
  8
0
 10
141.945
 20
-56.9445
 11
141.847
 21
-57.0376
  0
LINE
  8
0
 10
141.847
 20
-57.0376
 11
141.745
 21
-57.1258
  0
LINE
  8
0
 10
141.745
 20
-57.1258
 11
141.638
 21
-57.2088
  0
LINE
  8
0
 10
141.638
 20
-57.2088
 11
141.528
 21
-57.2865
  0
LINE
  8
0
 10
141.528
 20
-57.2865
 11
141.414
 21
-57.3587
  0
LINE
  8
0
 10
141.414
 20
-57.3587
 11
141.296
 21
-57.4253
  0
LINE
  8
0
 10
141.296
 20
-57.4253
 11
141.176
 21
-57.486
  0
LINE
  8
0
 10
141.176
 20
-57.486
 11
141.052
 21
-57.5407
  0
LINE
  8
0
 10
141.052
 20
-57.5407
 11
140.926
 21
-57.5892
  0
LINE
  8
0
 10
140.926
 20
-57.5892
 11
140.798
 21
-57.6316
  0
LINE
  8
0
 10
140.798
 20
-57.6316
 11
140.668
 21
-57.6676
  0
LINE
  8
0
 10
140.668
 20
-57.6676
 11
140.536
 21
-57.6972
  0
LINE
  8
0
 10
140.536
 20
-57.6972
 11
140.404
 21
-57.7202
  0
LINE
  8
0
 10
140.404
 20
-57.7202
 11
140.27
 21
-57.7368
  0
LINE
  8
0
 10
140.27
 20
-57.7368
 11
140.135
 21
-57.7467
  0
LINE
  8
0
 10
140.135
 20
-57.7467
 11
140
 21
-57.75
  0
LINE
  8
0
 10
140
 20
-57.75
 11
139.865
 21
-57.7467
  0
LINE
  8
0
 10
-140.135
 20
-57.7467
 11
-140.27
 21
-57.7368
  0
LINE
  8
0
 10
-140.27
 20
-57.7368
 11
-140.404
 21
-57.7202
  0
LINE
  8
0
 10
-140.404
 20
-57.7202
 11
-140.536
 21
-57.6972
  0
LINE
  8
0
 10
-140.536
 20
-57.6972
 11
-140.668
 21
-57.6676
  0
LINE
  8
0
 10
-140.668
 20
-57.6676
 11
-140.798
 21
-57.6316
  0
LINE
  8
0
 10
-140.798
 20
-57.6316
 11
-140.926
 21
-57.5892
  0
LINE
  8
0
 10
-140.926
 20
-57.5892
 11
-141.052
 21
-57.5407
  0
LINE
  8
0
 10
-141.052
 20
-57.5407
 11
-141.176
 21
-57.486
  0
LINE
  8
0
 10
-141.176
 20
-57.486
 11
-141.296
 21
-57.4253
  0
LINE
  8
0
 10
-141.296
 20
-57.4253
 11
-141.414
 21
-57.3587
  0
LINE
  8
0
 10
-141.414
 20
-57.3587
 11
-141.528
 21
-57.2865
  0
LINE
  8
0
 10
-141.528
 20
-57.2865
 11
-141.638
 21
-57.2088
  0
LINE
  8
0
 10
-141.638
 20
-57.2088
 11
-141.745
 21
-57.1258
  0
LINE
  8
0
 10
-141.745
 20
-57.1258
 11
-141.847
 21
-57.0376
  0
LINE
  8
0
 10
-141.847
 20
-57.0376
 11
-141.945
 21
-56.9445
  0
LINE
  8
0
 10
-141.945
 20
-56.9445
 11
-142.038
 21
-56.8468
  0
LINE
  8
0
 10
-142.038
 20
-56.8468
 11
-142.126
 21
-56.7446
  0
LINE
  8
0
 10
-142.126
 20
-56.7446
 11
-142.209
 21
-56.6382
  0
LINE
  8
0
 10
-142.209
 20
-56.6382
 11
-142.287
 21
-56.5278
  0
LINE
  8
0
 10
-142.287
 20
-56.5278
 11
-142.359
 21
-56.4138
  0
LINE
  8
0
 10
-142.359
 20
-56.4138
 11
-142.425
 21
-56.2963
  0
LINE
  8
0
 10
-142.425
 20
-56.2963
 11
-142.486
 21
-56.1758
  0
LINE
  8
0
 10
-142.486
 20
-56.1758
 11
-142.541
 21
-56.0524
  0
LINE
  8
0
 10
-142.541
 20
-56.0524
 11
-142.589
 21
-55.9264
  0
LINE
  8
0
 10
-142.589
 20
-55.9264
 11
-142.632
 21
-55.7983
  0
LINE
  8
0
 10
-142.632
 20
-55.7983
 11
-142.668
 21
-55.6682
  0
LINE
  8
0
 10
-142.668
 20
-55.6682
 11
-142.697
 21
-55.5365
  0
LINE
  8
0
 10
-142.697
 20
-55.5365
 11
-142.72
 21
-55.4035
  0
LINE
  8
0
 10
-142.72
 20
-55.4035
 11
-142.737
 21
-55.2695
  0
LINE
  8
0
 10
-142.737
 20
-55.2695
 11
-142.747
 21
-55.1349
  0
LINE
  8
0
 10
-142.747
 20
-55.1349
 11
-142.75
 21
-55
  0
LINE
  8
0
 10
-142.75
 20
-55
 11
-142.747
 21
-54.8651
  0
LINE
  8
0
 10
-142.747
 20
-54.8651
 11
-142.737
 21
-54.7305
  0
LINE
  8
0
 10
-142.737
 20
-54.7305
 11
-142.72
 21
-54.5965
  0
LINE
  8
0
 10
-142.72
 20
-54.5965
 11
-142.697
 21
-54.4635
  0
LINE
  8
0
 10
-142.697
 20
-54.4635
 11
-142.668
 21
-54.3318
  0
LINE
  8
0
 10
-142.668
 20
-54.3318
 11
-142.632
 21
-54.2017
  0
LINE
  8
0
 10
-142.632
 20
-54.2017
 11
-142.589
 21
-54.0735
  0
LINE
  8
0
 10
-142.589
 20
-54.0735
 11
-142.541
 21
-53.9476
  0
LINE
  8
0
 10
-142.541
 20
-53.9476
 11
-142.486
 21
-53.8242
  0
LINE
  8
0
 10
-142.486
 20
-53.8242
 11
-142.425
 21
-53.7037
  0
LINE
  8
0
 10
-142.425
 20
-53.7037
 11
-142.359
 21
-53.5862
  0
LINE
  8
0
 10
-142.359
 20
-53.5862
 11
-142.287
 21
-53.4722
  0
LINE
  8
0
 10
-142.287
 20
-53.4722
 11
-142.209
 21
-53.3618
  0
LINE
  8
0
 10
-142.209
 20
-53.3618
 11
-142.126
 21
-53.2554
  0
LINE
  8
0
 10
-142.126
 20
-53.2554
 11
-142.038
 21
-53.1532
  0
LINE
  8
0
 10
-142.038
 20
-53.1532
 11
-141.945
 21
-53.0555
  0
LINE
  8
0
 10
-141.945
 20
-53.0555
 11
-141.847
 21
-52.9624
  0
LINE
  8
0
 10
-141.847
 20
-52.9624
 11
-141.745
 21
-52.8742
  0
LINE
  8
0
 10
-141.745
 20
-52.8742
 11
-141.638
 21
-52.7912
  0
LINE
  8
0
 10
-141.638
 20
-52.7912
 11
-141.528
 21
-52.7135
  0
LINE
  8
0
 10
-141.528
 20
-52.7135
 11
-141.414
 21
-52.6412
  0
LINE
  8
0
 10
-141.414
 20
-52.6412
 11
-141.296
 21
-52.5747
  0
LINE
  8
0
 10
-141.296
 20
-52.5747
 11
-141.176
 21
-52.514
  0
LINE
  8
0
 10
-141.176
 20
-52.514
 11
-141.052
 21
-52.4593
  0
LINE
  8
0
 10
-141.052
 20
-52.4593
 11
-140.926
 21
-52.4108
  0
LINE
  8
0
 10
-140.926
 20
-52.4108
 11
-140.798
 21
-52.3684
  0
LINE
  8
0
 10
-140.798
 20
-52.3684
 11
-140.668
 21
-52.3324
  0
LINE
  8
0
 10
-140.668
 20
-52.3324
 11
-140.536
 21
-52.3028
  0
LINE
  8
0
 10
-140.536
 20
-52.3028
 11
-140.404
 21
-52.2798
  0
LINE
  8
0
 10
-140.404
 20
-52.2798
 11
-140.27
 21
-52.2632
  0
LINE
  8
0
 10
-140.27
 20
-52.2632
 11
-140.135
 21
-52.2533
  0
LINE
  8
0
 10
-140.135
 20
-52.2533
 11
-140
 21
-52.25
  0
LINE
  8
0
 10
-140
 20
-52.25
 11
-139.865
 21
-52.2533
  0
LINE
  8
0
 10
-139.865
 20
-52.2533
 11
-139.73
 21
-52.2632
  0
LINE
  8
0
 10
-139.73
 20
-52.2632
 11
-139.596
 21
-52.2798
  0
LINE
  8
0
 10
-139.596
 20
-52.2798
 11
-139.464
 21
-52.3028
  0
LINE
  8
0
 10
-139.464
 20
-52.3028
 11
-139.332
 21
-52.3324
  0
LINE
  8
0
 10
-139.332
 20
-52.3324
 11
-139.202
 21
-52.3684
  0
LINE
  8
0
 10
-139.202
 20
-52.3684
 11
-139.074
 21
-52.4108
  0
LINE
  8
0
 10
-139.074
 20
-52.4108
 11
-138.948
 21
-52.4593
  0
LINE
  8
0
 10
-138.948
 20
-52.4593
 11
-138.824
 21
-52.514
  0
LINE
  8
0
 10
-138.824
 20
-52.514
 11
-138.704
 21
-52.5747
  0
LINE
  8
0
 10
-138.704
 20
-52.5747
 11
-138.586
 21
-52.6412
  0
LINE
  8
0
 10
-138.586
 20
-52.6412
 11
-138.472
 21
-52.7135
  0
LINE
  8
0
 10
-138.472
 20
-52.7135
 11
-138.362
 21
-52.7912
  0
LINE
  8
0
 10
-138.362
 20
-52.7912
 11
-138.255
 21
-52.8742
  0
LINE
  8
0
 10
-138.255
 20
-52.8742
 11
-138.153
 21
-52.9624
  0
LINE
  8
0
 10
-138.153
 20
-52.9624
 11
-138.055
 21
-53.0555
  0
LINE
  8
0
 10
-138.055
 20
-53.0555
 11
-137.962
 21
-53.1532
  0
LINE
  8
0
 10
-137.962
 20
-53.1532
 11
-137.874
 21
-53.2554
  0
LINE
  8
0
 10
-137.874
 20
-53.2554
 11
-137.791
 21
-53.3618
  0
LINE
  8
0
 10
-137.791
 20
-53.3618
 11
-137.713
 21
-53.4722
  0
LINE
  8
0
 10
-137.713
 20
-53.4722
 11
-137.641
 21
-53.5862
  0
LINE
  8
0
 10
-137.641
 20
-53.5862
 11
-137.575
 21
-53.7037
  0
LINE
  8
0
 10
-137.575
 20
-53.7037
 11
-137.514
 21
-53.8242
  0
LINE
  8
0
 10
-137.514
 20
-53.8242
 11
-137.459
 21
-53.9476
  0
LINE
  8
0
 10
-137.459
 20
-53.9476
 11
-137.411
 21
-54.0735
  0
LINE
  8
0
 10
-137.411
 20
-54.0735
 11
-137.368
 21
-54.2017
  0
LINE
  8
0
 10
-137.368
 20
-54.2017
 11
-137.332
 21
-54.3318
  0
LINE
  8
0
 10
-137.332
 20
-54.3318
 11
-137.303
 21
-54.4635
  0
LINE
  8
0
 10
-137.303
 20
-54.4635
 11
-137.28
 21
-54.5965
  0
LINE
  8
0
 10
-137.28
 20
-54.5965
 11
-137.263
 21
-54.7305
  0
LINE
  8
0
 10
-137.263
 20
-54.7305
 11
-137.253
 21
-54.8651
  0
LINE
  8
0
 10
-137.253
 20
-54.8651
 11
-137.25
 21
-55
  0
LINE
  8
0
 10
-137.25
 20
-55
 11
-137.253
 21
-55.1349
  0
LINE
  8
0
 10
-137.253
 20
-55.1349
 11
-137.263
 21
-55.2695
  0
LINE
  8
0
 10
-137.263
 20
-55.2695
 11
-137.28
 21
-55.4035
  0
LINE
  8
0
 10
-137.28
 20
-55.4035
 11
-137.303
 21
-55.5365
  0
LINE
  8
0
 10
-137.303
 20
-55.5365
 11
-137.332
 21
-55.6682
  0
LINE
  8
0
 10
-137.332
 20
-55.6682
 11
-137.368
 21
-55.7983
  0
LINE
  8
0
 10
-137.368
 20
-55.7983
 11
-137.411
 21
-55.9264
  0
LINE
  8
0
 10
-137.411
 20
-55.9264
 11
-137.459
 21
-56.0524
  0
LINE
  8
0
 10
-137.459
 20
-56.0524
 11
-137.514
 21
-56.1758
  0
LINE
  8
0
 10
-137.514
 20
-56.1758
 11
-137.575
 21
-56.2963
  0
LINE
  8
0
 10
-137.575
 20
-56.2963
 11
-137.641
 21
-56.4138
  0
LINE
  8
0
 10
-137.641
 20
-56.4138
 11
-137.713
 21
-56.5278
  0
LINE
  8
0
 10
-137.713
 20
-56.5278
 11
-137.791
 21
-56.6382
  0
LINE
  8
0
 10
-137.791
 20
-56.6382
 11
-137.874
 21
-56.7446
  0
LINE
  8
0
 10
-137.874
 20
-56.7446
 11
-137.962
 21
-56.8468
  0
LINE
  8
0
 10
-137.962
 20
-56.8468
 11
-138.055
 21
-56.9445
  0
LINE
  8
0
 10
-138.055
 20
-56.9445
 11
-138.153
 21
-57.0376
  0
LINE
  8
0
 10
-138.153
 20
-57.0376
 11
-138.255
 21
-57.1258
  0
LINE
  8
0
 10
-138.255
 20
-57.1258
 11
-138.362
 21
-57.2088
  0
LINE
  8
0
 10
-138.362
 20
-57.2088
 11
-138.472
 21
-57.2865
  0
LINE
  8
0
 10
-138.472
 20
-57.2865
 11
-138.586
 21
-57.3587
  0
LINE
  8
0
 10
-138.586
 20
-57.3587
 11
-138.704
 21
-57.4253
  0
LINE
  8
0
 10
-138.704
 20
-57.4253
 11
-138.824
 21
-57.486
  0
LINE
  8
0
 10
-138.824
 20
-57.486
 11
-138.948
 21
-57.5407
  0
LINE
  8
0
 10
-138.948
 20
-57.5407
 11
-139.074
 21
-57.5892
  0
LINE
  8
0
 10
-139.074
 20
-57.5892
 11
-139.202
 21
-57.6316
  0
LINE
  8
0
 10
-139.202
 20
-57.6316
 11
-139.332
 21
-57.6676
  0
LINE
  8
0
 10
-139.332
 20
-57.6676
 11
-139.464
 21
-57.6972
  0
LINE
  8
0
 10
-139.464
 20
-57.6972
 11
-139.596
 21
-57.7202
  0
LINE
  8
0
 10
-139.596
 20
-57.7202
 11
-139.73
 21
-57.7368
  0
LINE
  8
0
 10
-139.73
 20
-57.7368
 11
-139.865
 21
-57.7467
  0
LINE
  8
0
 10
-139.865
 20
-57.7467
 11
-140
 21
-57.75
  0
LINE
  8
0
 10
-140
 20
-57.75
 11
-140.135
 21
-57.7467
  0
LINE
  8
0
 10
44.472
 20
-72.5564
 11
44.5926
 21
-72.5334
  0
LINE
  8
0
 10
44.5926
 20
-72.5334
 11
44.7141
 21
-72.5164
  0
LINE
  8
0
 10
44.7141
 20
-72.5164
 11
44.8363
 21
-72.5054
  0
LINE
  8
0
 10
44.8363
 20
-72.5054
 11
44.9589
 21
-72.5003
  0
LINE
  8
0
 10
44.9589
 20
-72.5003
 11
45.0816
 21
-72.5013
  0
LINE
  8
0
 10
45.0816
 20
-72.5013
 11
45.2041
 21
-72.5084
  0
LINE
  8
0
 10
45.2041
 20
-72.5084
 11
45.3261
 21
-72.5214
  0
LINE
  8
0
 10
45.3261
 20
-72.5214
 11
45.4474
 21
-72.5404
  0
LINE
  8
0
 10
45.4474
 20
-72.5404
 11
45.5675
 21
-72.5653
  0
LINE
  8
0
 10
45.5675
 20
-72.5653
 11
45.6863
 21
-72.5961
  0
LINE
  8
0
 10
45.6863
 20
-72.5961
 11
45.8034
 21
-72.6327
  0
LINE
  8
0
 10
45.8034
 20
-72.6327
 11
45.9186
 21
-72.675
  0
LINE
  8
0
 10
45.9186
 20
-72.675
 11
46.0316
 21
-72.7229
  0
LINE
  8
0
 10
46.0316
 20
-72.7229
 11
46.1421
 21
-72.7762
  0
LINE
  8
0
 10
46.1421
 20
-72.7762
 11
46.2498
 21
-72.8349
  0
LINE
  8
0
 10
46.2498
 20
-72.8349
 11
46.3546
 21
-72.8989
  0
LINE
  8
0
 10
46.3546
 20
-72.8989
 11
46.456
 21
-72.9679
  0
LINE
  8
0
 10
46.456
 20
-72.9679
 11
46.554
 21
-73.0418
  0
LINE
  8
0
 10
46.554
 20
-73.0418
 11
46.6482
 21
-73.1204
  0
LINE
  8
0
 10
46.6482
 20
-73.1204
 11
46.7384
 21
-73.2036
  0
LINE
  8
0
 10
46.7384
 20
-73.2036
 11
46.8245
 21
-73.291
  0
LINE
  8
0
 10
46.8245
 20
-73.291
 11
46.9061
 21
-73.3826
  0
LINE
  8
0
 10
46.9061
 20
-73.3826
 11
46.9832
 21
-73.4781
  0
LINE
  8
0
 10
46.9832
 20
-73.4781
 11
47.0555
 21
-73.5773
  0
LINE
  8
0
 10
47.0555
 20
-73.5773
 11
47.1228
 21
-73.6798
  0
LINE
  8
0
 10
47.1228
 20
-73.6798
 11
47.185
 21
-73.7856
  0
LINE
  8
0
 10
47.185
 20
-73.7856
 11
47.242
 21
-73.8943
  0
LINE
  8
0
 10
47.242
 20
-73.8943
 11
47.2936
 21
-74.0056
  0
LINE
  8
0
 10
47.2936
 20
-74.0056
 11
47.3396
 21
-74.1194
  0
LINE
  8
0
 10
47.3396
 20
-74.1194
 11
47.38
 21
-74.2352
  0
LINE
  8
0
 10
47.38
 20
-74.2352
 11
47.4146
 21
-74.353
  0
LINE
  8
0
 10
47.4146
 20
-74.353
 11
47.4435
 21
-74.4722
  0
LINE
  8
0
 10
47.4435
 20
-74.4722
 11
47.4664
 21
-74.5928
  0
LINE
  8
0
 10
47.4664
 20
-74.5928
 11
47.4834
 21
-74.7143
  0
LINE
  8
0
 10
47.4834
 20
-74.7143
 11
47.4945
 21
-74.8365
  0
LINE
  8
0
 10
47.4945
 20
-74.8365
 11
47.4995
 21
-74.9591
  0
LINE
  8
0
 10
47.4995
 20
-74.9591
 11
47.4985
 21
-75.0818
  0
LINE
  8
0
 10
47.4985
 20
-75.0818
 11
47.4915
 21
-75.2043
  0
LINE
  8
0
 10
47.4915
 20
-75.2043
 11
47.4784
 21
-75.3263
  0
LINE
  8
0
 10
47.4784
 20
-75.3263
 11
47.4594
 21
-75.4476
  0
LINE
  8
0
 10
47.4594
 20
-75.4476
 11
47.4345
 21
-75.5677
  0
LINE
  8
0
 10
47.4345
 20
-75.5677
 11
47.4037
 21
-75.6865
  0
LINE
  8
0
 10
47.4037
 20
-75.6865
 11
47.3671
 21
-75.8036
  0
LINE
  8
0
 10
47.3671
 20
-75.8036
 11
47.3249
 21
-75.9188
  0
LINE
  8
0
 10
47.3249
 20
-75.9188
 11
47.277
 21
-76.0318
  0
LINE
  8
0
 10
47.277
 20
-76.0318
 11
47.2236
 21
-76.1423
  0
LINE
  8
0
 10
47.2236
 20
-76.1423
 11
47.1649
 21
-76.25
  0
LINE
  8
0
 10
47.1649
 20
-76.25
 11
47.1009
 21
-76.3547
  0
LINE
  8
0
 10
47.1009
 20
-76.3547
 11
47.0319
 21
-76.4562
  0
LINE
  8
0
 10
47.0319
 20
-76.4562
 11
46.958
 21
-76.5542
  0
LINE
  8
0
 10
46.958
 20
-76.5542
 11
46.8794
 21
-76.6484
  0
LINE
  8
0
 10
46.8794
 20
-76.6484
 11
46.7963
 21
-76.7386
  0
LINE
  8
0
 10
46.7963
 20
-76.7386
 11
46.7088
 21
-76.8247
  0
LINE
  8
0
 10
46.7088
 20
-76.8247
 11
46.6172
 21
-76.9063
  0
LINE
  8
0
 10
46.6172
 20
-76.9063
 11
46.5217
 21
-76.9834
  0
LINE
  8
0
 10
46.5217
 20
-76.9834
 11
46.4226
 21
-77.0557
  0
LINE
  8
0
 10
46.4226
 20
-77.0557
 11
46.32
 21
-77.123
  0
LINE
  8
0
 10
46.32
 20
-77.123
 11
46.2142
 21
-77.1852
  0
LINE
  8
0
 10
46.2142
 20
-77.1852
 11
46.1055
 21
-77.2422
  0
LINE
  8
0
 10
46.1055
 20
-77.2422
 11
45.9942
 21
-77.2937
  0
LINE
  8
0
 10
45.9942
 20
-77.2937
 11
45.8804
 21
-77.3398
  0
LINE
  8
0
 10
45.8804
 20
-77.3398
 11
45.7646
 21
-77.3802
  0
LINE
  8
0
 10
45.7646
 20
-77.3802
 11
45.6469
 21
-77.4148
  0
LINE
  8
0
 10
45.6469
 20
-77.4148
 11
45.5276
 21
-77.4437
  0
LINE
  8
0
 10
45.5276
 20
-77.4437
 11
45.4071
 21
-77.4666
  0
LINE
  8
0
 10
45.4071
 20
-77.4666
 11
45.2855
 21
-77.4836
  0
LINE
  8
0
 10
45.2855
 20
-77.4836
 11
45.1633
 21
-77.4947
  0
LINE
  8
0
 10
45.1633
 20
-77.4947
 11
45.0407
 21
-77.4997
  0
LINE
  8
0
 10
45.0407
 20
-77.4997
 11
44.918
 21
-77.4987
  0
LINE
  8
0
 10
44.918
 20
-77.4987
 11
44.7955
 21
-77.4916
  0
LINE
  8
0
 10
44.7955
 20
-77.4916
 11
44.6735
 21
-77.4786
  0
LINE
  8
0
 10
44.6735
 20
-77.4786
 11
44.5523
 21
-77.4596
  0
LINE
  8
0
 10
44.5523
 20
-77.4596
 11
44.4321
 21
-77.4347
  0
LINE
  8
0
 10
44.4321
 20
-77.4347
 11
44.3134
 21
-77.4039
  0
LINE
  8
0
 10
44.3134
 20
-77.4039
 11
44.1962
 21
-77.3673
  0
LINE
  8
0
 10
44.1962
 20
-77.3673
 11
44.081
 21
-77.325
  0
LINE
  8
0
 10
44.081
 20
-77.325
 11
43.968
 21
-77.2772
  0
LINE
  8
0
 10
43.968
 20
-77.2772
 11
43.8576
 21
-77.2238
  0
LINE
  8
0
 10
43.8576
 20
-77.2238
 11
43.7498
 21
-77.1651
  0
LINE
  8
0
 10
43.7498
 20
-77.1651
 11
43.6451
 21
-77.1011
  0
LINE
  8
0
 10
43.6451
 20
-77.1011
 11
43.5436
 21
-77.0321
  0
LINE
  8
0
 10
43.5436
 20
-77.0321
 11
43.4457
 21
-76.9582
  0
LINE
  8
0
 10
43.4457
 20
-76.9582
 11
43.3515
 21
-76.8796
  0
LINE
  8
0
 10
43.3515
 20
-76.8796
 11
43.2612
 21
-76.7965
  0
LINE
  8
0
 10
43.2612
 20
-76.7965
 11
43.1752
 21
-76.709
  0
LINE
  8
0
 10
43.1752
 20
-76.709
 11
43.0935
 21
-76.6174
  0
LINE
  8
0
 10
43.0935
 20
-76.6174
 11
43.0164
 21
-76.5219
  0
LINE
  8
0
 10
43.0164
 20
-76.5219
 11
42.9442
 21
-76.4228
  0
LINE
  8
0
 10
42.9442
 20
-76.4228
 11
42.8768
 21
-76.3202
  0
LINE
  8
0
 10
42.8768
 20
-76.3202
 11
42.8146
 21
-76.2144
  0
LINE
  8
0
 10
42.8146
 20
-76.2144
 11
42.7576
 21
-76.1057
  0
LINE
  8
0
 10
42.7576
 20
-76.1057
 11
42.7061
 21
-75.9944
  0
LINE
  8
0
 10
42.7061
 20
-75.9944
 11
42.6601
 21
-75.8806
  0
LINE
  8
0
 10
42.6601
 20
-75.8806
 11
42.6197
 21
-75.7648
  0
LINE
  8
0
 10
42.6197
 20
-75.7648
 11
42.585
 21
-75.647
  0
LINE
  8
0
 10
42.585
 20
-75.647
 11
42.5562
 21
-75.5278
  0
LINE
  8
0
 10
42.5562
 20
-75.5278
 11
42.5332
 21
-75.4072
  0
LINE
  8
0
 10
42.5332
 20
-75.4072
 11
42.5162
 21
-75.2857
  0
LINE
  8
0
 10
42.5162
 20
-75.2857
 11
42.5052
 21
-75.1635
  0
LINE
  8
0
 10
42.5052
 20
-75.1635
 11
42.5002
 21
-75.0409
  0
LINE
  8
0
 10
42.5002
 20
-75.0409
 11
42.5012
 21
-74.9182
  0
LINE
  8
0
 10
42.5012
 20
-74.9182
 11
42.5082
 21
-74.7957
  0
LINE
  8
0
 10
42.5082
 20
-74.7957
 11
42.5212
 21
-74.6737
  0
LINE
  8
0
 10
42.5212
 20
-74.6737
 11
42.5402
 21
-74.5525
  0
LINE
  8
0
 10
42.5402
 20
-74.5525
 11
42.5651
 21
-74.4323
  0
LINE
  8
0
 10
42.5651
 20
-74.4323
 11
42.5959
 21
-74.3135
  0
LINE
  8
0
 10
42.5959
 20
-74.3135
 11
42.6325
 21
-74.1964
  0
LINE
  8
0
 10
42.6325
 20
-74.1964
 11
42.6748
 21
-74.0812
  0
LINE
  8
0
 10
42.6748
 20
-74.0812
 11
42.7227
 21
-73.9682
  0
LINE
  8
0
 10
42.7227
 20
-73.9682
 11
42.776
 21
-73.8577
  0
LINE
  8
0
 10
42.776
 20
-73.8577
 11
42.8348
 21
-73.75
  0
LINE
  8
0
 10
42.8348
 20
-73.75
 11
42.8987
 21
-73.6453
  0
LINE
  8
0
 10
42.8987
 20
-73.6453
 11
42.9677
 21
-73.5438
  0
LINE
  8
0
 10
42.9677
 20
-73.5438
 11
43.0416
 21
-73.4459
  0
LINE
  8
0
 10
43.0416
 20
-73.4459
 11
43.1202
 21
-73.3516
  0
LINE
  8
0
 10
43.1202
 20
-73.3516
 11
43.2034
 21
-73.2614
  0
LINE
  8
0
 10
43.2034
 20
-73.2614
 11
43.2908
 21
-73.1754
  0
LINE
  8
0
 10
43.2908
 20
-73.1754
 11
43.3824
 21
-73.0937
  0
LINE
  8
0
 10
43.3824
 20
-73.0937
 11
43.4779
 21
-73.0166
  0
LINE
  8
0
 10
43.4779
 20
-73.0166
 11
43.5771
 21
-72.9443
  0
LINE
  8
0
 10
43.5771
 20
-72.9443
 11
43.6797
 21
-72.877
  0
LINE
  8
0
 10
43.6797
 20
-72.877
 11
43.7854
 21
-72.8148
  0
LINE
  8
0
 10
43.7854
 20
-72.8148
 11
43.8941
 21
-72.7578
  0
LINE
  8
0
 10
43.8941
 20
-72.7578
 11
44.0054
 21
-72.7063
  0
LINE
  8
0
 10
44.0054
 20
-72.7063
 11
44.1192
 21
-72.6602
  0
LINE
  8
0
 10
44.1192
 20
-72.6602
 11
44.2351
 21
-72.6198
  0
LINE
  8
0
 10
44.2351
 20
-72.6198
 11
44.3528
 21
-72.5852
  0
LINE
  8
0
 10
44.3528
 20
-72.5852
 11
44.472
 21
-72.5564
  0
LINE
  8
0
 10
-0.367996
 20
-97.491
 11
-0.735123
 21
-97.4639
  0
LINE
  8
0
 10
-0.735123
 20
-97.4639
 11
-1.10046
 21
-97.4188
  0
LINE
  8
0
 10
-1.10046
 20
-97.4188
 11
-1.46317
 21
-97.3559
  0
LINE
  8
0
 10
-1.46317
 20
-97.3559
 11
-1.82234
 21
-97.2752
  0
LINE
  8
0
 10
-1.82234
 20
-97.2752
 11
-2.17712
 21
-97.177
  0
LINE
  8
0
 10
-2.17712
 20
-97.177
 11
-2.52667
 21
-97.0616
  0
LINE
  8
0
 10
-2.52667
 20
-97.0616
 11
-2.87012
 21
-96.9291
  0
LINE
  8
0
 10
-2.87012
 20
-96.9291
 11
-3.20665
 21
-96.7799
  0
LINE
  8
0
 10
-3.20665
 20
-96.7799
 11
-3.53546
 21
-96.6144
  0
LINE
  8
0
 10
-3.53546
 20
-96.6144
 11
-3.85576
 21
-96.433
  0
LINE
  8
0
 10
-3.85576
 20
-96.433
 11
-4.16676
 21
-96.236
  0
LINE
  8
0
 10
-4.16676
 20
-96.236
 11
-4.46774
 21
-96.024
  0
LINE
  8
0
 10
-4.46774
 20
-96.024
 11
-4.75795
 21
-95.7976
  0
LINE
  8
0
 10
-4.75795
 20
-95.7976
 11
-5.03668
 21
-95.5571
  0
LINE
  8
0
 10
-5.03668
 20
-95.5571
 11
-5.3033
 21
-95.3033
  0
LINE
  8
0
 10
-5.3033
 20
-95.3033
 11
-5.55713
 21
-95.0367
  0
LINE
  8
0
 10
-5.55713
 20
-95.0367
 11
-5.79758
 21
-94.7579
  0
LINE
  8
0
 10
-5.79758
 20
-94.7579
 11
-6.02405
 21
-94.4677
  0
LINE
  8
0
 10
-6.02405
 20
-94.4677
 11
-6.23601
 21
-94.1668
  0
LINE
  8
0
 10
-6.23601
 20
-94.1668
 11
-6.43295
 21
-93.8558
  0
LINE
  8
0
 10
-6.43295
 20
-93.8558
 11
-6.6144
 21
-93.5355
  0
LINE
  8
0
 10
-6.6144
 20
-93.5355
 11
-6.77991
 21
-93.2067
  0
LINE
  8
0
 10
-6.77991
 20
-93.2067
 11
-6.92909
 21
-92.8701
  0
LINE
  8
0
 10
-6.92909
 20
-92.8701
 11
-7.06157
 21
-92.5267
  0
LINE
  8
0
 10
-7.06157
 20
-92.5267
 11
-7.17705
 21
-92.1771
  0
LINE
  8
0
 10
-7.17705
 20
-92.1771
 11
-7.27522
 21
-91.8223
  0
LINE
  8
0
 10
-7.27522
 20
-91.8223
 11
-7.35588
 21
-91.4632
  0
LINE
  8
0
 10
-7.35588
 20
-91.4632
 11
-7.41882
 21
-91.1005
  0
LINE
  8
0
 10
-7.41882
 20
-91.1005
 11
-7.46388
 21
-90.7351
  0
LINE
  8
0
 10
-7.46388
 20
-90.7351
 11
-7.49095
 21
-90.368
  0
LINE
  8
0
 10
-7.49095
 20
-90.368
 11
-7.5
 21
-90
  0
LINE
  8
0
 10
-7.5
 20
-90
 11
-7.49095
 21
-89.632
  0
LINE
  8
0
 10
-7.49095
 20
-89.632
 11
-7.46388
 21
-89.2649
  0
LINE
  8
0
 10
-7.46388
 20
-89.2649
 11
-7.41882
 21
-88.8995
  0
LINE
  8
0
 10
-7.41882
 20
-88.8995
 11
-7.35588
 21
-88.5368
  0
LINE
  8
0
 10
-7.35588
 20
-88.5368
 11
-7.27522
 21
-88.1776
  0
LINE
  8
0
 10
-7.27522
 20
-88.1776
 11
-7.17705
 21
-87.8229
  0
LINE
  8
0
 10
-7.17705
 20
-87.8229
 11
-7.06157
 21
-87.4733
  0
LINE
  8
0
 10
-7.06157
 20
-87.4733
 11
-6.92909
 21
-87.1299
  0
LINE
  8
0
 10
-6.92909
 20
-87.1299
 11
-6.77991
 21
-86.7933
  0
LINE
  8
0
 10
-6.77991
 20
-86.7933
 11
-6.6144
 21
-86.4645
  0
LINE
  8
0
 10
-6.6144
 20
-86.4645
 11
-6.43295
 21
-86.1442
  0
LINE
  8
0
 10
-6.43295
 20
-86.1442
 11
-6.23601
 21
-85.8332
  0
LINE
  8
0
 10
-6.23601
 20
-85.8332
 11
-6.02405
 21
-85.5323
  0
LINE
  8
0
 10
-6.02405
 20
-85.5323
 11
-5.79758
 21
-85.2421
  0
LINE
  8
0
 10
-5.79758
 20
-85.2421
 11
-5.55713
 21
-84.9633
  0
LINE
  8
0
 10
-5.55713
 20
-84.9633
 11
-5.3033
 21
-84.6967
  0
LINE
  8
0
 10
-5.3033
 20
-84.6967
 11
-5.03668
 21
-84.4429
  0
LINE
  8
0
 10
-5.03668
 20
-84.4429
 11
-4.75795
 21
-84.2024
  0
LINE
  8
0
 10
-4.75795
 20
-84.2024
 11
-4.46774
 21
-83.9759
  0
LINE
  8
0
 10
-4.46774
 20
-83.9759
 11
-4.16676
 21
-83.764
  0
LINE
  8
0
 10
-4.16676
 20
-83.764
 11
-3.85576
 21
-83.567
  0
LINE
  8
0
 10
-3.85576
 20
-83.567
 11
-3.53546
 21
-83.3856
  0
LINE
  8
0
 10
-3.53546
 20
-83.3856
 11
-3.20665
 21
-83.2201
  0
LINE
  8
0
 10
-3.20665
 20
-83.2201
 11
-2.87012
 21
-83.0709
  0
LINE
  8
0
 10
-2.87012
 20
-83.0709
 11
-2.52667
 21
-82.9384
  0
LINE
  8
0
 10
-2.52667
 20
-82.9384
 11
-2.17712
 21
-82.8229
  0
LINE
  8
0
 10
-2.17712
 20
-82.8229
 11
-1.82234
 21
-82.7248
  0
LINE
  8
0
 10
-1.82234
 20
-82.7248
 11
-1.46317
 21
-82.6441
  0
LINE
  8
0
 10
-1.46317
 20
-82.6441
 11
-1.10046
 21
-82.5812
  0
LINE
  8
0
 10
-1.10046
 20
-82.5812
 11
-0.735123
 21
-82.5361
  0
LINE
  8
0
 10
-0.735123
 20
-82.5361
 11
-0.367996
 21
-82.509
  0
LINE
  8
0
 10
-0.367996
 20
-82.509
 11
0
 21
-82.5
  0
LINE
  8
0
 10
0
 20
-82.5
 11
0.367996
 21
-82.509
  0
LINE
  8
0
 10
0.367996
 20
-82.509
 11
0.735123
 21
-82.5361
  0
LINE
  8
0
 10
0.735123
 20
-82.5361
 11
1.10046
 21
-82.5812
  0
LINE
  8
0
 10
1.10046
 20
-82.5812
 11
1.46317
 21
-82.6441
  0
LINE
  8
0
 10
1.46317
 20
-82.6441
 11
1.82234
 21
-82.7248
  0
LINE
  8
0
 10
1.82234
 20
-82.7248
 11
2.17712
 21
-82.8229
  0
LINE
  8
0
 10
2.17712
 20
-82.8229
 11
2.52667
 21
-82.9384
  0
LINE
  8
0
 10
2.52667
 20
-82.9384
 11
2.87012
 21
-83.0709
  0
LINE
  8
0
 10
2.87012
 20
-83.0709
 11
3.20665
 21
-83.2201
  0
LINE
  8
0
 10
3.20665
 20
-83.2201
 11
3.53546
 21
-83.3856
  0
LINE
  8
0
 10
3.53546
 20
-83.3856
 11
3.85576
 21
-83.567
  0
LINE
  8
0
 10
3.85576
 20
-83.567
 11
4.16676
 21
-83.764
  0
LINE
  8
0
 10
4.16676
 20
-83.764
 11
4.46774
 21
-83.9759
  0
LINE
  8
0
 10
4.46774
 20
-83.9759
 11
4.75795
 21
-84.2024
  0
LINE
  8
0
 10
4.75795
 20
-84.2024
 11
5.03668
 21
-84.4429
  0
LINE
  8
0
 10
5.03668
 20
-84.4429
 11
5.3033
 21
-84.6967
  0
LINE
  8
0
 10
5.3033
 20
-84.6967
 11
5.55713
 21
-84.9633
  0
LINE
  8
0
 10
5.55713
 20
-84.9633
 11
5.79758
 21
-85.2421
  0
LINE
  8
0
 10
5.79758
 20
-85.2421
 11
6.02405
 21
-85.5323
  0
LINE
  8
0
 10
6.02405
 20
-85.5323
 11
6.23601
 21
-85.8332
  0
LINE
  8
0
 10
6.23601
 20
-85.8332
 11
6.43295
 21
-86.1442
  0
LINE
  8
0
 10
6.43295
 20
-86.1442
 11
6.6144
 21
-86.4645
  0
LINE
  8
0
 10
6.6144
 20
-86.4645
 11
6.77991
 21
-86.7933
  0
LINE
  8
0
 10
6.77991
 20
-86.7933
 11
6.92909
 21
-87.1299
  0
LINE
  8
0
 10
6.92909
 20
-87.1299
 11
7.06157
 21
-87.4733
  0
LINE
  8
0
 10
7.06157
 20
-87.4733
 11
7.17705
 21
-87.8229
  0
LINE
  8
0
 10
7.17705
 20
-87.8229
 11
7.27522
 21
-88.1776
  0
LINE
  8
0
 10
7.27522
 20
-88.1776
 11
7.35588
 21
-88.5368
  0
LINE
  8
0
 10
7.35588
 20
-88.5368
 11
7.41882
 21
-88.8995
  0
LINE
  8
0
 10
7.41882
 20
-88.8995
 11
7.46388
 21
-89.2649
  0
LINE
  8
0
 10
7.46388
 20
-89.2649
 11
7.49095
 21
-89.632
  0
LINE
  8
0
 10
7.49095
 20
-89.632
 11
7.5
 21
-90
  0
LINE
  8
0
 10
7.5
 20
-90
 11
7.49095
 21
-90.368
  0
LINE
  8
0
 10
7.49095
 20
-90.368
 11
7.46388
 21
-90.7351
  0
LINE
  8
0
 10
7.46388
 20
-90.7351
 11
7.41882
 21
-91.1005
  0
LINE
  8
0
 10
7.41882
 20
-91.1005
 11
7.35588
 21
-91.4632
  0
LINE
  8
0
 10
7.35588
 20
-91.4632
 11
7.27522
 21
-91.8223
  0
LINE
  8
0
 10
7.27522
 20
-91.8223
 11
7.17705
 21
-92.1771
  0
LINE
  8
0
 10
7.17705
 20
-92.1771
 11
7.06157
 21
-92.5267
  0
LINE
  8
0
 10
7.06157
 20
-92.5267
 11
6.92909
 21
-92.8701
  0
LINE
  8
0
 10
6.92909
 20
-92.8701
 11
6.77991
 21
-93.2067
  0
LINE
  8
0
 10
6.77991
 20
-93.2067
 11
6.6144
 21
-93.5355
  0
LINE
  8
0
 10
6.6144
 20
-93.5355
 11
6.43295
 21
-93.8558
  0
LINE
  8
0
 10
6.43295
 20
-93.8558
 11
6.23601
 21
-94.1668
  0
LINE
  8
0
 10
6.23601
 20
-94.1668
 11
6.02405
 21
-94.4677
  0
LINE
  8
0
 10
6.02405
 20
-94.4677
 11
5.79758
 21
-94.7579
  0
LINE
  8
0
 10
5.79758
 20
-94.7579
 11
5.55713
 21
-95.0367
  0
LINE
  8
0
 10
5.55713
 20
-95.0367
 11
5.3033
 21
-95.3033
  0
LINE
  8
0
 10
5.3033
 20
-95.3033
 11
5.03668
 21
-95.5571
  0
LINE
  8
0
 10
5.03668
 20
-95.5571
 11
4.75795
 21
-95.7976
  0
LINE
  8
0
 10
4.75795
 20
-95.7976
 11
4.46774
 21
-96.024
  0
LINE
  8
0
 10
4.46774
 20
-96.024
 11
4.16676
 21
-96.236
  0
LINE
  8
0
 10
4.16676
 20
-96.236
 11
3.85576
 21
-96.433
  0
LINE
  8
0
 10
3.85576
 20
-96.433
 11
3.53546
 21
-96.6144
  0
LINE
  8
0
 10
3.53546
 20
-96.6144
 11
3.20665
 21
-96.7799
  0
LINE
  8
0
 10
3.20665
 20
-96.7799
 11
2.87012
 21
-96.9291
  0
LINE
  8
0
 10
2.87012
 20
-96.9291
 11
2.52667
 21
-97.0616
  0
LINE
  8
0
 10
2.52667
 20
-97.0616
 11
2.17712
 21
-97.177
  0
LINE
  8
0
 10
2.17712
 20
-97.177
 11
1.82234
 21
-97.2752
  0
LINE
  8
0
 10
1.82234
 20
-97.2752
 11
1.46317
 21
-97.3559
  0
LINE
  8
0
 10
1.46317
 20
-97.3559
 11
1.10046
 21
-97.4188
  0
LINE
  8
0
 10
1.10046
 20
-97.4188
 11
0.735123
 21
-97.4639
  0
LINE
  8
0
 10
0.735123
 20
-97.4639
 11
0.367996
 21
-97.491
  0
LINE
  8
0
 10
0.367996
 20
-97.491
 11
0
 21
-97.5
  0
LINE
  8
0
 10
0
 20
-97.5
 11
-0.367996
 21
-97.491
  0
LINE
  8
0
 10
139.865
 20
-112.747
 11
139.73
 21
-112.737
  0
LINE
  8
0
 10
139.73
 20
-112.737
 11
139.596
 21
-112.72
  0
LINE
  8
0
 10
139.596
 20
-112.72
 11
139.464
 21
-112.697
  0
LINE
  8
0
 10
139.464
 20
-112.697
 11
139.332
 21
-112.668
  0
LINE
  8
0
 10
139.332
 20
-112.668
 11
139.202
 21
-112.632
  0
LINE
  8
0
 10
139.202
 20
-112.632
 11
139.074
 21
-112.589
  0
LINE
  8
0
 10
139.074
 20
-112.589
 11
138.948
 21
-112.541
  0
LINE
  8
0
 10
138.948
 20
-112.541
 11
138.824
 21
-112.486
  0
LINE
  8
0
 10
138.824
 20
-112.486
 11
138.704
 21
-112.425
  0
LINE
  8
0
 10
138.704
 20
-112.425
 11
138.586
 21
-112.359
  0
LINE
  8
0
 10
138.586
 20
-112.359
 11
138.472
 21
-112.287
  0
LINE
  8
0
 10
138.472
 20
-112.287
 11
138.362
 21
-112.209
  0
LINE
  8
0
 10
138.362
 20
-112.209
 11
138.255
 21
-112.126
  0
LINE
  8
0
 10
138.255
 20
-112.126
 11
138.153
 21
-112.038
  0
LINE
  8
0
 10
138.153
 20
-112.038
 11
138.055
 21
-111.945
  0
LINE
  8
0
 10
138.055
 20
-111.945
 11
137.962
 21
-111.847
  0
LINE
  8
0
 10
137.962
 20
-111.847
 11
137.874
 21
-111.745
  0
LINE
  8
0
 10
137.874
 20
-111.745
 11
137.791
 21
-111.638
  0
LINE
  8
0
 10
137.791
 20
-111.638
 11
137.713
 21
-111.528
  0
LINE
  8
0
 10
137.713
 20
-111.528
 11
137.641
 21
-111.414
  0
LINE
  8
0
 10
137.641
 20
-111.414
 11
137.575
 21
-111.296
  0
LINE
  8
0
 10
137.575
 20
-111.296
 11
137.514
 21
-111.176
  0
LINE
  8
0
 10
137.514
 20
-111.176
 11
137.459
 21
-111.052
  0
LINE
  8
0
 10
137.459
 20
-111.052
 11
137.411
 21
-110.926
  0
LINE
  8
0
 10
137.411
 20
-110.926
 11
137.368
 21
-110.798
  0
LINE
  8
0
 10
137.368
 20
-110.798
 11
137.332
 21
-110.668
  0
LINE
  8
0
 10
137.332
 20
-110.668
 11
137.303
 21
-110.536
  0
LINE
  8
0
 10
137.303
 20
-110.536
 11
137.28
 21
-110.404
  0
LINE
  8
0
 10
137.28
 20
-110.404
 11
137.263
 21
-110.27
  0
LINE
  8
0
 10
137.263
 20
-110.27
 11
137.253
 21
-110.135
  0
LINE
  8
0
 10
137.253
 20
-110.135
 11
137.25
 21
-110
  0
LINE
  8
0
 10
137.25
 20
-110
 11
137.253
 21
-109.865
  0
LINE
  8
0
 10
137.253
 20
-109.865
 11
137.263
 21
-109.73
  0
LINE
  8
0
 10
137.263
 20
-109.73
 11
137.28
 21
-109.596
  0
LINE
  8
0
 10
137.28
 20
-109.596
 11
137.303
 21
-109.464
  0
LINE
  8
0
 10
137.303
 20
-109.464
 11
137.332
 21
-109.332
  0
LINE
  8
0
 10
137.332
 20
-109.332
 11
137.368
 21
-109.202
  0
LINE
  8
0
 10
137.368
 20
-109.202
 11
137.411
 21
-109.074
  0
LINE
  8
0
 10
137.411
 20
-109.074
 11
137.459
 21
-108.948
  0
LINE
  8
0
 10
137.459
 20
-108.948
 11
137.514
 21
-108.824
  0
LINE
  8
0
 10
137.514
 20
-108.824
 11
137.575
 21
-108.704
  0
LINE
  8
0
 10
137.575
 20
-108.704
 11
137.641
 21
-108.586
  0
LINE
  8
0
 10
137.641
 20
-108.586
 11
137.713
 21
-108.472
  0
LINE
  8
0
 10
137.713
 20
-108.472
 11
137.791
 21
-108.362
  0
LINE
  8
0
 10
137.791
 20
-108.362
 11
137.874
 21
-108.255
  0
LINE
  8
0
 10
137.874
 20
-108.255
 11
137.962
 21
-108.153
  0
LINE
  8
0
 10
137.962
 20
-108.153
 11
138.055
 21
-108.055
  0
LINE
  8
0
 10
138.055
 20
-108.055
 11
138.153
 21
-107.962
  0
LINE
  8
0
 10
138.153
 20
-107.962
 11
138.255
 21
-107.874
  0
LINE
  8
0
 10
138.255
 20
-107.874
 11
138.362
 21
-107.791
  0
LINE
  8
0
 10
138.362
 20
-107.791
 11
138.472
 21
-107.713
  0
LINE
  8
0
 10
138.472
 20
-107.713
 11
138.586
 21
-107.641
  0
LINE
  8
0
 10
138.586
 20
-107.641
 11
138.704
 21
-107.575
  0
LINE
  8
0
 10
138.704
 20
-107.575
 11
138.824
 21
-107.514
  0
LINE
  8
0
 10
138.824
 20
-107.514
 11
138.948
 21
-107.459
  0
LINE
  8
0
 10
138.948
 20
-107.459
 11
139.074
 21
-107.411
  0
LINE
  8
0
 10
139.074
 20
-107.411
 11
139.202
 21
-107.368
  0
LINE
  8
0
 10
139.202
 20
-107.368
 11
139.332
 21
-107.332
  0
LINE
  8
0
 10
139.332
 20
-107.332
 11
139.464
 21
-107.303
  0
LINE
  8
0
 10
139.464
 20
-107.303
 11
139.596
 21
-107.28
  0
LINE
  8
0
 10
139.596
 20
-107.28
 11
139.73
 21
-107.263
  0
LINE
  8
0
 10
139.73
 20
-107.263
 11
139.865
 21
-107.253
  0
LINE
  8
0
 10
139.865
 20
-107.253
 11
140
 21
-107.25
  0
LINE
  8
0
 10
140
 20
-107.25
 11
140.135
 21
-107.253
  0
LINE
  8
0
 10
140.135
 20
-107.253
 11
140.27
 21
-107.263
  0
LINE
  8
0
 10
140.27
 20
-107.263
 11
140.404
 21
-107.28
  0
LINE
  8
0
 10
140.404
 20
-107.28
 11
140.536
 21
-107.303
  0
LINE
  8
0
 10
140.536
 20
-107.303
 11
140.668
 21
-107.332
  0
LINE
  8
0
 10
140.668
 20
-107.332
 11
140.798
 21
-107.368
  0
LINE
  8
0
 10
140.798
 20
-107.368
 11
140.926
 21
-107.411
  0
LINE
  8
0
 10
140.926
 20
-107.411
 11
141.052
 21
-107.459
  0
LINE
  8
0
 10
141.052
 20
-107.459
 11
141.176
 21
-107.514
  0
LINE
  8
0
 10
141.176
 20
-107.514
 11
141.296
 21
-107.575
  0
LINE
  8
0
 10
141.296
 20
-107.575
 11
141.414
 21
-107.641
  0
LINE
  8
0
 10
141.414
 20
-107.641
 11
141.528
 21
-107.713
  0
LINE
  8
0
 10
141.528
 20
-107.713
 11
141.638
 21
-107.791
  0
LINE
  8
0
 10
141.638
 20
-107.791
 11
141.745
 21
-107.874
  0
LINE
  8
0
 10
141.745
 20
-107.874
 11
141.847
 21
-107.962
  0
LINE
  8
0
 10
141.847
 20
-107.962
 11
141.945
 21
-108.055
  0
LINE
  8
0
 10
141.945
 20
-108.055
 11
142.038
 21
-108.153
  0
LINE
  8
0
 10
142.038
 20
-108.153
 11
142.126
 21
-108.255
  0
LINE
  8
0
 10
142.126
 20
-108.255
 11
142.209
 21
-108.362
  0
LINE
  8
0
 10
142.209
 20
-108.362
 11
142.287
 21
-108.472
  0
LINE
  8
0
 10
142.287
 20
-108.472
 11
142.359
 21
-108.586
  0
LINE
  8
0
 10
142.359
 20
-108.586
 11
142.425
 21
-108.704
  0
LINE
  8
0
 10
142.425
 20
-108.704
 11
142.486
 21
-108.824
  0
LINE
  8
0
 10
142.486
 20
-108.824
 11
142.541
 21
-108.948
  0
LINE
  8
0
 10
142.541
 20
-108.948
 11
142.589
 21
-109.074
  0
LINE
  8
0
 10
142.589
 20
-109.074
 11
142.632
 21
-109.202
  0
LINE
  8
0
 10
142.632
 20
-109.202
 11
142.668
 21
-109.332
  0
LINE
  8
0
 10
142.668
 20
-109.332
 11
142.697
 21
-109.464
  0
LINE
  8
0
 10
142.697
 20
-109.464
 11
142.72
 21
-109.596
  0
LINE
  8
0
 10
142.72
 20
-109.596
 11
142.737
 21
-109.73
  0
LINE
  8
0
 10
142.737
 20
-109.73
 11
142.747
 21
-109.865
  0
LINE
  8
0
 10
142.747
 20
-109.865
 11
142.75
 21
-110
  0
LINE
  8
0
 10
142.75
 20
-110
 11
142.747
 21
-110.135
  0
LINE
  8
0
 10
142.747
 20
-110.135
 11
142.737
 21
-110.27
  0
LINE
  8
0
 10
142.737
 20
-110.27
 11
142.72
 21
-110.404
  0
LINE
  8
0
 10
142.72
 20
-110.404
 11
142.697
 21
-110.536
  0
LINE
  8
0
 10
142.697
 20
-110.536
 11
142.668
 21
-110.668
  0
LINE
  8
0
 10
142.668
 20
-110.668
 11
142.632
 21
-110.798
  0
LINE
  8
0
 10
142.632
 20
-110.798
 11
142.589
 21
-110.926
  0
LINE
  8
0
 10
142.589
 20
-110.926
 11
142.541
 21
-111.052
  0
LINE
  8
0
 10
142.541
 20
-111.052
 11
142.486
 21
-111.176
  0
LINE
  8
0
 10
142.486
 20
-111.176
 11
142.425
 21
-111.296
  0
LINE
  8
0
 10
142.425
 20
-111.296
 11
142.359
 21
-111.414
  0
LINE
  8
0
 10
142.359
 20
-111.414
 11
142.287
 21
-111.528
  0
LINE
  8
0
 10
142.287
 20
-111.528
 11
142.209
 21
-111.638
  0
LINE
  8
0
 10
142.209
 20
-111.638
 11
142.126
 21
-111.745
  0
LINE
  8
0
 10
142.126
 20
-111.745
 11
142.038
 21
-111.847
  0
LINE
  8
0
 10
142.038
 20
-111.847
 11
141.945
 21
-111.945
  0
LINE
  8
0
 10
141.945
 20
-111.945
 11
141.847
 21
-112.038
  0
LINE
  8
0
 10
141.847
 20
-112.038
 11
141.745
 21
-112.126
  0
LINE
  8
0
 10
141.745
 20
-112.126
 11
141.638
 21
-112.209
  0
LINE
  8
0
 10
141.638
 20
-112.209
 11
141.528
 21
-112.287
  0
LINE
  8
0
 10
141.528
 20
-112.287
 11
141.414
 21
-112.359
  0
LINE
  8
0
 10
141.414
 20
-112.359
 11
141.296
 21
-112.425
  0
LINE
  8
0
 10
141.296
 20
-112.425
 11
141.176
 21
-112.486
  0
LINE
  8
0
 10
141.176
 20
-112.486
 11
141.052
 21
-112.541
  0
LINE
  8
0
 10
141.052
 20
-112.541
 11
140.926
 21
-112.589
  0
LINE
  8
0
 10
140.926
 20
-112.589
 11
140.798
 21
-112.632
  0
LINE
  8
0
 10
140.798
 20
-112.632
 11
140.668
 21
-112.668
  0
LINE
  8
0
 10
140.668
 20
-112.668
 11
140.536
 21
-112.697
  0
LINE
  8
0
 10
140.536
 20
-112.697
 11
140.404
 21
-112.72
  0
LINE
  8
0
 10
140.404
 20
-112.72
 11
140.27
 21
-112.737
  0
LINE
  8
0
 10
140.27
 20
-112.737
 11
140.135
 21
-112.747
  0
LINE
  8
0
 10
140.135
 20
-112.747
 11
140
 21
-112.75
  0
LINE
  8
0
 10
140
 20
-112.75
 11
139.865
 21
-112.747
  0
LINE
  8
0
 10
-140.135
 20
-112.747
 11
-140.27
 21
-112.737
  0
LINE
  8
0
 10
-140.27
 20
-112.737
 11
-140.404
 21
-112.72
  0
LINE
  8
0
 10
-140.404
 20
-112.72
 11
-140.536
 21
-112.697
  0
LINE
  8
0
 10
-140.536
 20
-112.697
 11
-140.668
 21
-112.668
  0
LINE
  8
0
 10
-140.668
 20
-112.668
 11
-140.798
 21
-112.632
  0
LINE
  8
0
 10
-140.798
 20
-112.632
 11
-140.926
 21
-112.589
  0
LINE
  8
0
 10
-140.926
 20
-112.589
 11
-141.052
 21
-112.541
  0
LINE
  8
0
 10
-141.052
 20
-112.541
 11
-141.176
 21
-112.486
  0
LINE
  8
0
 10
-141.176
 20
-112.486
 11
-141.296
 21
-112.425
  0
LINE
  8
0
 10
-141.296
 20
-112.425
 11
-141.414
 21
-112.359
  0
LINE
  8
0
 10
-141.414
 20
-112.359
 11
-141.528
 21
-112.287
  0
LINE
  8
0
 10
-141.528
 20
-112.287
 11
-141.638
 21
-112.209
  0
LINE
  8
0
 10
-141.638
 20
-112.209
 11
-141.745
 21
-112.126
  0
LINE
  8
0
 10
-141.745
 20
-112.126
 11
-141.847
 21
-112.038
  0
LINE
  8
0
 10
-141.847
 20
-112.038
 11
-141.945
 21
-111.945
  0
LINE
  8
0
 10
-141.945
 20
-111.945
 11
-142.038
 21
-111.847
  0
LINE
  8
0
 10
-142.038
 20
-111.847
 11
-142.126
 21
-111.745
  0
LINE
  8
0
 10
-142.126
 20
-111.745
 11
-142.209
 21
-111.638
  0
LINE
  8
0
 10
-142.209
 20
-111.638
 11
-142.287
 21
-111.528
  0
LINE
  8
0
 10
-142.287
 20
-111.528
 11
-142.359
 21
-111.414
  0
LINE
  8
0
 10
-142.359
 20
-111.414
 11
-142.425
 21
-111.296
  0
LINE
  8
0
 10
-142.425
 20
-111.296
 11
-142.486
 21
-111.176
  0
LINE
  8
0
 10
-142.486
 20
-111.176
 11
-142.541
 21
-111.052
  0
LINE
  8
0
 10
-142.541
 20
-111.052
 11
-142.589
 21
-110.926
  0
LINE
  8
0
 10
-142.589
 20
-110.926
 11
-142.632
 21
-110.798
  0
LINE
  8
0
 10
-142.632
 20
-110.798
 11
-142.668
 21
-110.668
  0
LINE
  8
0
 10
-142.668
 20
-110.668
 11
-142.697
 21
-110.536
  0
LINE
  8
0
 10
-142.697
 20
-110.536
 11
-142.72
 21
-110.404
  0
LINE
  8
0
 10
-142.72
 20
-110.404
 11
-142.737
 21
-110.27
  0
LINE
  8
0
 10
-142.737
 20
-110.27
 11
-142.747
 21
-110.135
  0
LINE
  8
0
 10
-142.747
 20
-110.135
 11
-142.75
 21
-110
  0
LINE
  8
0
 10
-142.75
 20
-110
 11
-142.747
 21
-109.865
  0
LINE
  8
0
 10
-142.747
 20
-109.865
 11
-142.737
 21
-109.73
  0
LINE
  8
0
 10
-142.737
 20
-109.73
 11
-142.72
 21
-109.596
  0
LINE
  8
0
 10
-142.72
 20
-109.596
 11
-142.697
 21
-109.464
  0
LINE
  8
0
 10
-142.697
 20
-109.464
 11
-142.668
 21
-109.332
  0
LINE
  8
0
 10
-142.668
 20
-109.332
 11
-142.632
 21
-109.202
  0
LINE
  8
0
 10
-142.632
 20
-109.202
 11
-142.589
 21
-109.074
  0
LINE
  8
0
 10
-142.589
 20
-109.074
 11
-142.541
 21
-108.948
  0
LINE
  8
0
 10
-142.541
 20
-108.948
 11
-142.486
 21
-108.824
  0
LINE
  8
0
 10
-142.486
 20
-108.824
 11
-142.425
 21
-108.704
  0
LINE
  8
0
 10
-142.425
 20
-108.704
 11
-142.359
 21
-108.586
  0
LINE
  8
0
 10
-142.359
 20
-108.586
 11
-142.287
 21
-108.472
  0
LINE
  8
0
 10
-142.287
 20
-108.472
 11
-142.209
 21
-108.362
  0
LINE
  8
0
 10
-142.209
 20
-108.362
 11
-142.126
 21
-108.255
  0
LINE
  8
0
 10
-142.126
 20
-108.255
 11
-142.038
 21
-108.153
  0
LINE
  8
0
 10
-142.038
 20
-108.153
 11
-141.945
 21
-108.055
  0
LINE
  8
0
 10
-141.945
 20
-108.055
 11
-141.847
 21
-107.962
  0
LINE
  8
0
 10
-141.847
 20
-107.962
 11
-141.745
 21
-107.874
  0
LINE
  8
0
 10
-141.745
 20
-107.874
 11
-141.638
 21
-107.791
  0
LINE
  8
0
 10
-141.638
 20
-107.791
 11
-141.528
 21
-107.713
  0
LINE
  8
0
 10
-141.528
 20
-107.713
 11
-141.414
 21
-107.641
  0
LINE
  8
0
 10
-141.414
 20
-107.641
 11
-141.296
 21
-107.575
  0
LINE
  8
0
 10
-141.296
 20
-107.575
 11
-141.176
 21
-107.514
  0
LINE
  8
0
 10
-141.176
 20
-107.514
 11
-141.052
 21
-107.459
  0
LINE
  8
0
 10
-141.052
 20
-107.459
 11
-140.926
 21
-107.411
  0
LINE
  8
0
 10
-140.926
 20
-107.411
 11
-140.798
 21
-107.368
  0
LINE
  8
0
 10
-140.798
 20
-107.368
 11
-140.668
 21
-107.332
  0
LINE
  8
0
 10
-140.668
 20
-107.332
 11
-140.536
 21
-107.303
  0
LINE
  8
0
 10
-140.536
 20
-107.303
 11
-140.404
 21
-107.28
  0
LINE
  8
0
 10
-140.404
 20
-107.28
 11
-140.27
 21
-107.263
  0
LINE
  8
0
 10
-140.27
 20
-107.263
 11
-140.135
 21
-107.253
  0
LINE
  8
0
 10
-140.135
 20
-107.253
 11
-140
 21
-107.25
  0
LINE
  8
0
 10
-140
 20
-107.25
 11
-139.865
 21
-107.253
  0
LINE
  8
0
 10
-139.865
 20
-107.253
 11
-139.73
 21
-107.263
  0
LINE
  8
0
 10
-139.73
 20
-107.263
 11
-139.596
 21
-107.28
  0
LINE
  8
0
 10
-139.596
 20
-107.28
 11
-139.464
 21
-107.303
  0
LINE
  8
0
 10
-139.464
 20
-107.303
 11
-139.332
 21
-107.332
  0
LINE
  8
0
 10
-139.332
 20
-107.332
 11
-139.202
 21
-107.368
  0
LINE
  8
0
 10
-139.202
 20
-107.368
 11
-139.074
 21
-107.411
  0
LINE
  8
0
 10
-139.074
 20
-107.411
 11
-138.948
 21
-107.459
  0
LINE
  8
0
 10
-138.948
 20
-107.459
 11
-138.824
 21
-107.514
  0
LINE
  8
0
 10
-138.824
 20
-107.514
 11
-138.704
 21
-107.575
  0
LINE
  8
0
 10
-138.704
 20
-107.575
 11
-138.586
 21
-107.641
  0
LINE
  8
0
 10
-138.586
 20
-107.641
 11
-138.472
 21
-107.713
  0
LINE
  8
0
 10
-138.472
 20
-107.713
 11
-138.362
 21
-107.791
  0
LINE
  8
0
 10
-138.362
 20
-107.791
 11
-138.255
 21
-107.874
  0
LINE
  8
0
 10
-138.255
 20
-107.874
 11
-138.153
 21
-107.962
  0
LINE
  8
0
 10
-138.153
 20
-107.962
 11
-138.055
 21
-108.055
  0
LINE
  8
0
 10
-138.055
 20
-108.055
 11
-137.962
 21
-108.153
  0
LINE
  8
0
 10
-137.962
 20
-108.153
 11
-137.874
 21
-108.255
  0
LINE
  8
0
 10
-137.874
 20
-108.255
 11
-137.791
 21
-108.362
  0
LINE
  8
0
 10
-137.791
 20
-108.362
 11
-137.713
 21
-108.472
  0
LINE
  8
0
 10
-137.713
 20
-108.472
 11
-137.641
 21
-108.586
  0
LINE
  8
0
 10
-137.641
 20
-108.586
 11
-137.575
 21
-108.704
  0
LINE
  8
0
 10
-137.575
 20
-108.704
 11
-137.514
 21
-108.824
  0
LINE
  8
0
 10
-137.514
 20
-108.824
 11
-137.459
 21
-108.948
  0
LINE
  8
0
 10
-137.459
 20
-108.948
 11
-137.411
 21
-109.074
  0
LINE
  8
0
 10
-137.411
 20
-109.074
 11
-137.368
 21
-109.202
  0
LINE
  8
0
 10
-137.368
 20
-109.202
 11
-137.332
 21
-109.332
  0
LINE
  8
0
 10
-137.332
 20
-109.332
 11
-137.303
 21
-109.464
  0
LINE
  8
0
 10
-137.303
 20
-109.464
 11
-137.28
 21
-109.596
  0
LINE
  8
0
 10
-137.28
 20
-109.596
 11
-137.263
 21
-109.73
  0
LINE
  8
0
 10
-137.263
 20
-109.73
 11
-137.253
 21
-109.865
  0
LINE
  8
0
 10
-137.253
 20
-109.865
 11
-137.25
 21
-110
  0
LINE
  8
0
 10
-137.25
 20
-110
 11
-137.253
 21
-110.135
  0
LINE
  8
0
 10
-137.253
 20
-110.135
 11
-137.263
 21
-110.27
  0
LINE
  8
0
 10
-137.263
 20
-110.27
 11
-137.28
 21
-110.404
  0
LINE
  8
0
 10
-137.28
 20
-110.404
 11
-137.303
 21
-110.536
  0
LINE
  8
0
 10
-137.303
 20
-110.536
 11
-137.332
 21
-110.668
  0
LINE
  8
0
 10
-137.332
 20
-110.668
 11
-137.368
 21
-110.798
  0
LINE
  8
0
 10
-137.368
 20
-110.798
 11
-137.411
 21
-110.926
  0
LINE
  8
0
 10
-137.411
 20
-110.926
 11
-137.459
 21
-111.052
  0
LINE
  8
0
 10
-137.459
 20
-111.052
 11
-137.514
 21
-111.176
  0
LINE
  8
0
 10
-137.514
 20
-111.176
 11
-137.575
 21
-111.296
  0
LINE
  8
0
 10
-137.575
 20
-111.296
 11
-137.641
 21
-111.414
  0
LINE
  8
0
 10
-137.641
 20
-111.414
 11
-137.713
 21
-111.528
  0
LINE
  8
0
 10
-137.713
 20
-111.528
 11
-137.791
 21
-111.638
  0
LINE
  8
0
 10
-137.791
 20
-111.638
 11
-137.874
 21
-111.745
  0
LINE
  8
0
 10
-137.874
 20
-111.745
 11
-137.962
 21
-111.847
  0
LINE
  8
0
 10
-137.962
 20
-111.847
 11
-138.055
 21
-111.945
  0
LINE
  8
0
 10
-138.055
 20
-111.945
 11
-138.153
 21
-112.038
  0
LINE
  8
0
 10
-138.153
 20
-112.038
 11
-138.255
 21
-112.126
  0
LINE
  8
0
 10
-138.255
 20
-112.126
 11
-138.362
 21
-112.209
  0
LINE
  8
0
 10
-138.362
 20
-112.209
 11
-138.472
 21
-112.287
  0
LINE
  8
0
 10
-138.472
 20
-112.287
 11
-138.586
 21
-112.359
  0
LINE
  8
0
 10
-138.586
 20
-112.359
 11
-138.704
 21
-112.425
  0
LINE
  8
0
 10
-138.704
 20
-112.425
 11
-138.824
 21
-112.486
  0
LINE
  8
0
 10
-138.824
 20
-112.486
 11
-138.948
 21
-112.541
  0
LINE
  8
0
 10
-138.948
 20
-112.541
 11
-139.074
 21
-112.589
  0
LINE
  8
0
 10
-139.074
 20
-112.589
 11
-139.202
 21
-112.632
  0
LINE
  8
0
 10
-139.202
 20
-112.632
 11
-139.332
 21
-112.668
  0
LINE
  8
0
 10
-139.332
 20
-112.668
 11
-139.464
 21
-112.697
  0
LINE
  8
0
 10
-139.464
 20
-112.697
 11
-139.596
 21
-112.72
  0
LINE
  8
0
 10
-139.596
 20
-112.72
 11
-139.73
 21
-112.737
  0
LINE
  8
0
 10
-139.73
 20
-112.737
 11
-139.865
 21
-112.747
  0
LINE
  8
0
 10
-139.865
 20
-112.747
 11
-140
 21
-112.75
  0
LINE
  8
0
 10
-140
 20
-112.75
 11
-140.135
 21
-112.747
  0
LINE
  8
0
 10
107.332
 20
-140.668
 11
107.303
 21
-140.536
  0
LINE
  8
0
 10
107.303
 20
-140.536
 11
107.28
 21
-140.404
  0
LINE
  8
0
 10
107.28
 20
-140.404
 11
107.263
 21
-140.27
  0
LINE
  8
0
 10
107.263
 20
-140.27
 11
107.253
 21
-140.135
  0
LINE
  8
0
 10
107.253
 20
-140.135
 11
107.25
 21
-140
  0
LINE
  8
0
 10
107.25
 20
-140
 11
107.253
 21
-139.865
  0
LINE
  8
0
 10
107.253
 20
-139.865
 11
107.263
 21
-139.73
  0
LINE
  8
0
 10
107.263
 20
-139.73
 11
107.28
 21
-139.596
  0
LINE
  8
0
 10
107.28
 20
-139.596
 11
107.303
 21
-139.464
  0
LINE
  8
0
 10
107.303
 20
-139.464
 11
107.332
 21
-139.332
  0
LINE
  8
0
 10
107.332
 20
-139.332
 11
107.368
 21
-139.202
  0
LINE
  8
0
 10
107.368
 20
-139.202
 11
107.411
 21
-139.074
  0
LINE
  8
0
 10
107.411
 20
-139.074
 11
107.459
 21
-138.948
  0
LINE
  8
0
 10
107.459
 20
-138.948
 11
107.514
 21
-138.824
  0
LINE
  8
0
 10
107.514
 20
-138.824
 11
107.575
 21
-138.704
  0
LINE
  8
0
 10
107.575
 20
-138.704
 11
107.641
 21
-138.586
  0
LINE
  8
0
 10
107.641
 20
-138.586
 11
107.713
 21
-138.472
  0
LINE
  8
0
 10
107.713
 20
-138.472
 11
107.791
 21
-138.362
  0
LINE
  8
0
 10
107.791
 20
-138.362
 11
107.874
 21
-138.255
  0
LINE
  8
0
 10
107.874
 20
-138.255
 11
107.962
 21
-138.153
  0
LINE
  8
0
 10
107.962
 20
-138.153
 11
108.055
 21
-138.055
  0
LINE
  8
0
 10
108.055
 20
-138.055
 11
108.153
 21
-137.962
  0
LINE
  8
0
 10
108.153
 20
-137.962
 11
108.255
 21
-137.874
  0
LINE
  8
0
 10
108.255
 20
-137.874
 11
108.362
 21
-137.791
  0
LINE
  8
0
 10
108.362
 20
-137.791
 11
108.472
 21
-137.713
  0
LINE
  8
0
 10
108.472
 20
-137.713
 11
108.586
 21
-137.641
  0
LINE
  8
0
 10
108.586
 20
-137.641
 11
108.704
 21
-137.575
  0
LINE
  8
0
 10
108.704
 20
-137.575
 11
108.824
 21
-137.514
  0
LINE
  8
0
 10
108.824
 20
-137.514
 11
108.948
 21
-137.459
  0
LINE
  8
0
 10
108.948
 20
-137.459
 11
109.074
 21
-137.411
  0
LINE
  8
0
 10
109.074
 20
-137.411
 11
109.202
 21
-137.368
  0
LINE
  8
0
 10
109.202
 20
-137.368
 11
109.332
 21
-137.332
  0
LINE
  8
0
 10
109.332
 20
-137.332
 11
109.464
 21
-137.303
  0
LINE
  8
0
 10
109.464
 20
-137.303
 11
109.596
 21
-137.28
  0
LINE
  8
0
 10
109.596
 20
-137.28
 11
109.73
 21
-137.263
  0
LINE
  8
0
 10
109.73
 20
-137.263
 11
109.865
 21
-137.253
  0
LINE
  8
0
 10
109.865
 20
-137.253
 11
110
 21
-137.25
  0
LINE
  8
0
 10
110
 20
-137.25
 11
110.135
 21
-137.253
  0
LINE
  8
0
 10
110.135
 20
-137.253
 11
110.27
 21
-137.263
  0
LINE
  8
0
 10
110.27
 20
-137.263
 11
110.404
 21
-137.28
  0
LINE
  8
0
 10
110.404
 20
-137.28
 11
110.536
 21
-137.303
  0
LINE
  8
0
 10
110.536
 20
-137.303
 11
110.668
 21
-137.332
  0
LINE
  8
0
 10
110.668
 20
-137.332
 11
110.798
 21
-137.368
  0
LINE
  8
0
 10
110.798
 20
-137.368
 11
110.926
 21
-137.411
  0
LINE
  8
0
 10
110.926
 20
-137.411
 11
111.052
 21
-137.459
  0
LINE
  8
0
 10
111.052
 20
-137.459
 11
111.176
 21
-137.514
  0
LINE
  8
0
 10
111.176
 20
-137.514
 11
111.296
 21
-137.575
  0
LINE
  8
0
 10
111.296
 20
-137.575
 11
111.414
 21
-137.641
  0
LINE
  8
0
 10
111.414
 20
-137.641
 11
111.528
 21
-137.713
  0
LINE
  8
0
 10
111.528
 20
-137.713
 11
111.638
 21
-137.791
  0
LINE
  8
0
 10
111.638
 20
-137.791
 11
111.745
 21
-137.874
  0
LINE
  8
0
 10
111.745
 20
-137.874
 11
111.847
 21
-137.962
  0
LINE
  8
0
 10
111.847
 20
-137.962
 11
111.945
 21
-138.055
  0
LINE
  8
0
 10
111.945
 20
-138.055
 11
112.038
 21
-138.153
  0
LINE
  8
0
 10
112.038
 20
-138.153
 11
112.126
 21
-138.255
  0
LINE
  8
0
 10
112.126
 20
-138.255
 11
112.209
 21
-138.362
  0
LINE
  8
0
 10
112.209
 20
-138.362
 11
112.287
 21
-138.472
  0
LINE
  8
0
 10
112.287
 20
-138.472
 11
112.359
 21
-138.586
  0
LINE
  8
0
 10
112.359
 20
-138.586
 11
112.425
 21
-138.704
  0
LINE
  8
0
 10
112.425
 20
-138.704
 11
112.486
 21
-138.824
  0
LINE
  8
0
 10
112.486
 20
-138.824
 11
112.541
 21
-138.948
  0
LINE
  8
0
 10
112.541
 20
-138.948
 11
112.589
 21
-139.074
  0
LINE
  8
0
 10
112.589
 20
-139.074
 11
112.632
 21
-139.202
  0
LINE
  8
0
 10
112.632
 20
-139.202
 11
112.668
 21
-139.332
  0
LINE
  8
0
 10
112.668
 20
-139.332
 11
112.697
 21
-139.464
  0
LINE
  8
0
 10
112.697
 20
-139.464
 11
112.72
 21
-139.596
  0
LINE
  8
0
 10
112.72
 20
-139.596
 11
112.737
 21
-139.73
  0
LINE
  8
0
 10
112.737
 20
-139.73
 11
112.747
 21
-139.865
  0
LINE
  8
0
 10
112.747
 20
-139.865
 11
112.75
 21
-140
  0
LINE
  8
0
 10
112.75
 20
-140
 11
112.747
 21
-140.135
  0
LINE
  8
0
 10
112.747
 20
-140.135
 11
112.737
 21
-140.27
  0
LINE
  8
0
 10
112.737
 20
-140.27
 11
112.72
 21
-140.404
  0
LINE
  8
0
 10
112.72
 20
-140.404
 11
112.697
 21
-140.536
  0
LINE
  8
0
 10
112.697
 20
-140.536
 11
112.668
 21
-140.668
  0
LINE
  8
0
 10
112.668
 20
-140.668
 11
112.632
 21
-140.798
  0
LINE
  8
0
 10
112.632
 20
-140.798
 11
112.589
 21
-140.926
  0
LINE
  8
0
 10
112.589
 20
-140.926
 11
112.541
 21
-141.052
  0
LINE
  8
0
 10
112.541
 20
-141.052
 11
112.486
 21
-141.176
  0
LINE
  8
0
 10
112.486
 20
-141.176
 11
112.425
 21
-141.296
  0
LINE
  8
0
 10
112.425
 20
-141.296
 11
112.359
 21
-141.414
  0
LINE
  8
0
 10
112.359
 20
-141.414
 11
112.287
 21
-141.528
  0
LINE
  8
0
 10
112.287
 20
-141.528
 11
112.209
 21
-141.638
  0
LINE
  8
0
 10
112.209
 20
-141.638
 11
112.126
 21
-141.745
  0
LINE
  8
0
 10
112.126
 20
-141.745
 11
112.038
 21
-141.847
  0
LINE
  8
0
 10
112.038
 20
-141.847
 11
111.945
 21
-141.945
  0
LINE
  8
0
 10
111.945
 20
-141.945
 11
111.847
 21
-142.038
  0
LINE
  8
0
 10
111.847
 20
-142.038
 11
111.745
 21
-142.126
  0
LINE
  8
0
 10
111.745
 20
-142.126
 11
111.638
 21
-142.209
  0
LINE
  8
0
 10
111.638
 20
-142.209
 11
111.528
 21
-142.287
  0
LINE
  8
0
 10
111.528
 20
-142.287
 11
111.414
 21
-142.359
  0
LINE
  8
0
 10
111.414
 20
-142.359
 11
111.296
 21
-142.425
  0
LINE
  8
0
 10
111.296
 20
-142.425
 11
111.176
 21
-142.486
  0
LINE
  8
0
 10
111.176
 20
-142.486
 11
111.052
 21
-142.541
  0
LINE
  8
0
 10
111.052
 20
-142.541
 11
110.926
 21
-142.589
  0
LINE
  8
0
 10
110.926
 20
-142.589
 11
110.798
 21
-142.632
  0
LINE
  8
0
 10
110.798
 20
-142.632
 11
110.668
 21
-142.668
  0
LINE
  8
0
 10
110.668
 20
-142.668
 11
110.536
 21
-142.697
  0
LINE
  8
0
 10
110.536
 20
-142.697
 11
110.404
 21
-142.72
  0
LINE
  8
0
 10
110.404
 20
-142.72
 11
110.27
 21
-142.737
  0
LINE
  8
0
 10
110.27
 20
-142.737
 11
110.135
 21
-142.747
  0
LINE
  8
0
 10
110.135
 20
-142.747
 11
110
 21
-142.75
  0
LINE
  8
0
 10
110
 20
-142.75
 11
109.865
 21
-142.747
  0
LINE
  8
0
 10
109.865
 20
-142.747
 11
109.73
 21
-142.737
  0
LINE
  8
0
 10
109.73
 20
-142.737
 11
109.596
 21
-142.72
  0
LINE
  8
0
 10
109.596
 20
-142.72
 11
109.464
 21
-142.697
  0
LINE
  8
0
 10
109.464
 20
-142.697
 11
109.332
 21
-142.668
  0
LINE
  8
0
 10
109.332
 20
-142.668
 11
109.202
 21
-142.632
  0
LINE
  8
0
 10
109.202
 20
-142.632
 11
109.074
 21
-142.589
  0
LINE
  8
0
 10
109.074
 20
-142.589
 11
108.948
 21
-142.541
  0
LINE
  8
0
 10
108.948
 20
-142.541
 11
108.824
 21
-142.486
  0
LINE
  8
0
 10
108.824
 20
-142.486
 11
108.704
 21
-142.425
  0
LINE
  8
0
 10
108.704
 20
-142.425
 11
108.586
 21
-142.359
  0
LINE
  8
0
 10
108.586
 20
-142.359
 11
108.472
 21
-142.287
  0
LINE
  8
0
 10
108.472
 20
-142.287
 11
108.362
 21
-142.209
  0
LINE
  8
0
 10
108.362
 20
-142.209
 11
108.255
 21
-142.126
  0
LINE
  8
0
 10
108.255
 20
-142.126
 11
108.153
 21
-142.038
  0
LINE
  8
0
 10
108.153
 20
-142.038
 11
108.055
 21
-141.945
  0
LINE
  8
0
 10
108.055
 20
-141.945
 11
107.962
 21
-141.847
  0
LINE
  8
0
 10
107.962
 20
-141.847
 11
107.874
 21
-141.745
  0
LINE
  8
0
 10
107.874
 20
-141.745
 11
107.791
 21
-141.638
  0
LINE
  8
0
 10
107.791
 20
-141.638
 11
107.713
 21
-141.528
  0
LINE
  8
0
 10
107.713
 20
-141.528
 11
107.641
 21
-141.414
  0
LINE
  8
0
 10
107.641
 20
-141.414
 11
107.575
 21
-141.296
  0
LINE
  8
0
 10
107.575
 20
-141.296
 11
107.514
 21
-141.176
  0
LINE
  8
0
 10
107.514
 20
-141.176
 11
107.459
 21
-141.052
  0
LINE
  8
0
 10
107.459
 20
-141.052
 11
107.411
 21
-140.926
  0
LINE
  8
0
 10
107.411
 20
-140.926
 11
107.368
 21
-140.798
  0
LINE
  8
0
 10
107.368
 20
-140.798
 11
107.332
 21
-140.668
  0
LINE
  8
0
 10
-57.7368
 20
139.73
 11
-57.7467
 21
139.865
  0
LINE
  8
0
 10
-57.7467
 20
139.865
 11
-57.75
 21
140
  0
LINE
  8
0
 10
-57.75
 20
140
 11
-57.7467
 21
140.135
  0
LINE
  8
0
 10
-57.7467
 20
140.135
 11
-57.7368
 21
140.27
  0
LINE
  8
0
 10
-57.7368
 20
140.27
 11
-57.7202
 21
140.404
  0
LINE
  8
0
 10
-57.7202
 20
140.404
 11
-57.6972
 21
140.536
  0
LINE
  8
0
 10
-57.6972
 20
140.536
 11
-57.6676
 21
140.668
  0
LINE
  8
0
 10
-57.6676
 20
140.668
 11
-57.6316
 21
140.798
  0
LINE
  8
0
 10
-57.6316
 20
140.798
 11
-57.5892
 21
140.926
  0
LINE
  8
0
 10
-57.5892
 20
140.926
 11
-57.5407
 21
141.052
  0
LINE
  8
0
 10
-57.5407
 20
141.052
 11
-57.486
 21
141.176
  0
LINE
  8
0
 10
-57.486
 20
141.176
 11
-57.4253
 21
141.296
  0
LINE
  8
0
 10
-57.4253
 20
141.296
 11
-57.3587
 21
141.414
  0
LINE
  8
0
 10
-57.3587
 20
141.414
 11
-57.2865
 21
141.528
  0
LINE
  8
0
 10
-57.2865
 20
141.528
 11
-57.2088
 21
141.638
  0
LINE
  8
0
 10
-57.2088
 20
141.638
 11
-57.1258
 21
141.745
  0
LINE
  8
0
 10
-57.1258
 20
141.745
 11
-57.0376
 21
141.847
  0
LINE
  8
0
 10
-57.0376
 20
141.847
 11
-56.9445
 21
141.945
  0
LINE
  8
0
 10
-56.9445
 20
141.945
 11
-56.8468
 21
142.038
  0
LINE
  8
0
 10
-56.8468
 20
142.038
 11
-56.7446
 21
142.126
  0
LINE
  8
0
 10
-56.7446
 20
142.126
 11
-56.6382
 21
142.209
  0
LINE
  8
0
 10
-56.6382
 20
142.209
 11
-56.5278
 21
142.287
  0
LINE
  8
0
 10
-56.5278
 20
142.287
 11
-56.4138
 21
142.359
  0
LINE
  8
0
 10
-56.4138
 20
142.359
 11
-56.2963
 21
142.425
  0
LINE
  8
0
 10
-56.2963
 20
142.425
 11
-56.1758
 21
142.486
  0
LINE
  8
0
 10
-56.1758
 20
142.486
 11
-56.0524
 21
142.541
  0
LINE
  8
0
 10
-56.0524
 20
142.541
 11
-55.9264
 21
142.589
  0
LINE
  8
0
 10
-55.9264
 20
142.589
 11
-55.7983
 21
142.632
  0
LINE
  8
0
 10
-55.7983
 20
142.632
 11
-55.6682
 21
142.668
  0
LINE
  8
0
 10
-55.6682
 20
142.668
 11
-55.5365
 21
142.697
  0
LINE
  8
0
 10
-55.5365
 20
142.697
 11
-55.4035
 21
142.72
  0
LINE
  8
0
 10
-55.4035
 20
142.72
 11
-55.2695
 21
142.737
  0
LINE
  8
0
 10
-55.2695
 20
142.737
 11
-55.1349
 21
142.747
  0
LINE
  8
0
 10
-55.1349
 20
142.747
 11
-55
 21
142.75
  0
LINE
  8
0
 10
-55
 20
142.75
 11
-54.8651
 21
142.747
  0
LINE
  8
0
 10
-54.8651
 20
142.747
 11
-54.7305
 21
142.737
  0
LINE
  8
0
 10
-54.7305
 20
142.737
 11
-54.5965
 21
142.72
  0
LINE
  8
0
 10
-54.5965
 20
142.72
 11
-54.4635
 21
142.697
  0
LINE
  8
0
 10
-54.4635
 20
142.697
 11
-54.3318
 21
142.668
  0
LINE
  8
0
 10
-54.3318
 20
142.668
 11
-54.2017
 21
142.632
  0
LINE
  8
0
 10
-54.2017
 20
142.632
 11
-54.0735
 21
142.589
  0
LINE
  8
0
 10
-54.0735
 20
142.589
 11
-53.9476
 21
142.541
  0
LINE
  8
0
 10
-53.9476
 20
142.541
 11
-53.8242
 21
142.486
  0
LINE
  8
0
 10
-53.8242
 20
142.486
 11
-53.7037
 21
142.425
  0
LINE
  8
0
 10
-53.7037
 20
142.425
 11
-53.5862
 21
142.359
  0
LINE
  8
0
 10
-53.5862
 20
142.359
 11
-53.4722
 21
142.287
  0
LINE
  8
0
 10
-53.4722
 20
142.287
 11
-53.3618
 21
142.209
  0
LINE
  8
0
 10
-53.3618
 20
142.209
 11
-53.2554
 21
142.126
  0
LINE
  8
0
 10
-53.2554
 20
142.126
 11
-53.1532
 21
142.038
  0
LINE
  8
0
 10
-53.1532
 20
142.038
 11
-53.0555
 21
141.945
  0
LINE
  8
0
 10
-53.0555
 20
141.945
 11
-52.9624
 21
141.847
  0
LINE
  8
0
 10
-52.9624
 20
141.847
 11
-52.8742
 21
141.745
  0
LINE
  8
0
 10
-52.8742
 20
141.745
 11
-52.7912
 21
141.638
  0
LINE
  8
0
 10
-52.7912
 20
141.638
 11
-52.7135
 21
141.528
  0
LINE
  8
0
 10
-52.7135
 20
141.528
 11
-52.6412
 21
141.414
  0
LINE
  8
0
 10
-52.6412
 20
141.414
 11
-52.5747
 21
141.296
  0
LINE
  8
0
 10
-52.5747
 20
141.296
 11
-52.514
 21
141.176
  0
LINE
  8
0
 10
-52.514
 20
141.176
 11
-52.4593
 21
141.052
  0
LINE
  8
0
 10
-52.4593
 20
141.052
 11
-52.4108
 21
140.926
  0
LINE
  8
0
 10
-52.4108
 20
140.926
 11
-52.3684
 21
140.798
  0
LINE
  8
0
 10
-52.3684
 20
140.798
 11
-52.3324
 21
140.668
  0
LINE
  8
0
 10
-52.3324
 20
140.668
 11
-52.3028
 21
140.536
  0
LINE
  8
0
 10
-52.3028
 20
140.536
 11
-52.2798
 21
140.404
  0
LINE
  8
0
 10
-52.2798
 20
140.404
 11
-52.2632
 21
140.27
  0
LINE
  8
0
 10
-52.2632
 20
140.27
 11
-52.2533
 21
140.135
  0
LINE
  8
0
 10
-52.2533
 20
140.135
 11
-52.25
 21
140
  0
LINE
  8
0
 10
-52.25
 20
140
 11
-52.2533
 21
139.865
  0
LINE
  8
0
 10
-52.2533
 20
139.865
 11
-52.2632
 21
139.73
  0
LINE
  8
0
 10
-52.2632
 20
139.73
 11
-52.2798
 21
139.596
  0
LINE
  8
0
 10
-52.2798
 20
139.596
 11
-52.3028
 21
139.464
  0
LINE
  8
0
 10
-52.3028
 20
139.464
 11
-52.3324
 21
139.332
  0
LINE
  8
0
 10
-52.3324
 20
139.332
 11
-52.3684
 21
139.202
  0
LINE
  8
0
 10
-52.3684
 20
139.202
 11
-52.4108
 21
139.074
  0
LINE
  8
0
 10
-52.4108
 20
139.074
 11
-52.4593
 21
138.948
  0
LINE
  8
0
 10
-52.4593
 20
138.948
 11
-52.514
 21
138.824
  0
LINE
  8
0
 10
-52.514
 20
138.824
 11
-52.5747
 21
138.704
  0
LINE
  8
0
 10
-52.5747
 20
138.704
 11
-52.6412
 21
138.586
  0
LINE
  8
0
 10
-52.6412
 20
138.586
 11
-52.7135
 21
138.472
  0
LINE
  8
0
 10
-52.7135
 20
138.472
 11
-52.7912
 21
138.362
  0
LINE
  8
0
 10
-52.7912
 20
138.362
 11
-52.8742
 21
138.255
  0
LINE
  8
0
 10
-52.8742
 20
138.255
 11
-52.9624
 21
138.153
  0
LINE
  8
0
 10
-52.9624
 20
138.153
 11
-53.0555
 21
138.055
  0
LINE
  8
0
 10
-53.0555
 20
138.055
 11
-53.1532
 21
137.962
  0
LINE
  8
0
 10
-53.1532
 20
137.962
 11
-53.2554
 21
137.874
  0
LINE
  8
0
 10
-53.2554
 20
137.874
 11
-53.3618
 21
137.791
  0
LINE
  8
0
 10
-53.3618
 20
137.791
 11
-53.4722
 21
137.713
  0
LINE
  8
0
 10
-53.4722
 20
137.713
 11
-53.5862
 21
137.641
  0
LINE
  8
0
 10
-53.5862
 20
137.641
 11
-53.7037
 21
137.575
  0
LINE
  8
0
 10
-53.7037
 20
137.575
 11
-53.8242
 21
137.514
  0
LINE
  8
0
 10
-53.8242
 20
137.514
 11
-53.9476
 21
137.459
  0
LINE
  8
0
 10
-53.9476
 20
137.459
 11
-54.0735
 21
137.411
  0
LINE
  8
0
 10
-54.0735
 20
137.411
 11
-54.2017
 21
137.368
  0
LINE
  8
0
 10
-54.2017
 20
137.368
 11
-54.3318
 21
137.332
  0
LINE
  8
0
 10
-54.3318
 20
137.332
 11
-54.4635
 21
137.303
  0
LINE
  8
0
 10
-54.4635
 20
137.303
 11
-54.5965
 21
137.28
  0
LINE
  8
0
 10
-54.5965
 20
137.28
 11
-54.7305
 21
137.263
  0
LINE
  8
0
 10
-54.7305
 20
137.263
 11
-54.8651
 21
137.253
  0
LINE
  8
0
 10
-54.8651
 20
137.253
 11
-55
 21
137.25
  0
LINE
  8
0
 10
-55
 20
137.25
 11
-55.1349
 21
137.253
  0
LINE
  8
0
 10
-55.1349
 20
137.253
 11
-55.2695
 21
137.263
  0
LINE
  8
0
 10
-55.2695
 20
137.263
 11
-55.4035
 21
137.28
  0
LINE
  8
0
 10
-55.4035
 20
137.28
 11
-55.5365
 21
137.303
  0
LINE
  8
0
 10
-55.5365
 20
137.303
 11
-55.6682
 21
137.332
  0
LINE
  8
0
 10
-55.6682
 20
137.332
 11
-55.7983
 21
137.368
  0
LINE
  8
0
 10
-55.7983
 20
137.368
 11
-55.9264
 21
137.411
  0
LINE
  8
0
 10
-55.9264
 20
137.411
 11
-56.0524
 21
137.459
  0
LINE
  8
0
 10
-56.0524
 20
137.459
 11
-56.1758
 21
137.514
  0
LINE
  8
0
 10
-56.1758
 20
137.514
 11
-56.2963
 21
137.575
  0
LINE
  8
0
 10
-56.2963
 20
137.575
 11
-56.4138
 21
137.641
  0
LINE
  8
0
 10
-56.4138
 20
137.641
 11
-56.5278
 21
137.713
  0
LINE
  8
0
 10
-56.5278
 20
137.713
 11
-56.6382
 21
137.791
  0
LINE
  8
0
 10
-56.6382
 20
137.791
 11
-56.7446
 21
137.874
  0
LINE
  8
0
 10
-56.7446
 20
137.874
 11
-56.8468
 21
137.962
  0
LINE
  8
0
 10
-56.8468
 20
137.962
 11
-56.9445
 21
138.055
  0
LINE
  8
0
 10
-56.9445
 20
138.055
 11
-57.0376
 21
138.153
  0
LINE
  8
0
 10
-57.0376
 20
138.153
 11
-57.1258
 21
138.255
  0
LINE
  8
0
 10
-57.1258
 20
138.255
 11
-57.2088
 21
138.362
  0
LINE
  8
0
 10
-57.2088
 20
138.362
 11
-57.2865
 21
138.472
  0
LINE
  8
0
 10
-57.2865
 20
138.472
 11
-57.3587
 21
138.586
  0
LINE
  8
0
 10
-57.3587
 20
138.586
 11
-57.4253
 21
138.704
  0
LINE
  8
0
 10
-57.4253
 20
138.704
 11
-57.486
 21
138.824
  0
LINE
  8
0
 10
-57.486
 20
138.824
 11
-57.5407
 21
138.948
  0
LINE
  8
0
 10
-57.5407
 20
138.948
 11
-57.5892
 21
139.074
  0
LINE
  8
0
 10
-57.5892
 20
139.074
 11
-57.6316
 21
139.202
  0
LINE
  8
0
 10
-57.6316
 20
139.202
 11
-57.6676
 21
139.332
  0
LINE
  8
0
 10
-57.6676
 20
139.332
 11
-57.6972
 21
139.464
  0
LINE
  8
0
 10
-57.6972
 20
139.464
 11
-57.7202
 21
139.596
  0
LINE
  8
0
 10
-57.7202
 20
139.596
 11
-57.7368
 21
139.73
  0
LINE
  8
0
 10
-2.20882
 20
141.638
 11
-2.12578
 21
141.745
  0
LINE
  8
0
 10
-2.12578
 20
141.745
 11
-2.03761
 21
141.847
  0
LINE
  8
0
 10
-2.03761
 20
141.847
 11
-1.94453
 21
141.945
  0
LINE
  8
0
 10
-1.94453
 20
141.945
 11
-1.84679
 21
142.038
  0
LINE
  8
0
 10
-1.84679
 20
142.038
 11
-1.74457
 21
142.126
  0
LINE
  8
0
 10
-1.74457
 20
142.126
 11
-1.63817
 21
142.209
  0
LINE
  8
0
 10
-1.63817
 20
142.209
 11
-1.52782
 21
142.287
  0
LINE
  8
0
 10
-1.52782
 20
142.287
 11
-1.41377
 21
142.359
  0
LINE
  8
0
 10
-1.41377
 20
142.359
 11
-1.29634
 21
142.425
  0
LINE
  8
0
 10
-1.29634
 20
142.425
 11
-1.17577
 21
142.486
  0
LINE
  8
0
 10
-1.17577
 20
142.486
 11
-1.05237
 21
142.541
  0
LINE
  8
0
 10
-1.05237
 20
142.541
 11
-0.926437
 21
142.589
  0
LINE
  8
0
 10
-0.926437
 20
142.589
 11
-0.798279
 21
142.632
  0
LINE
  8
0
 10
-0.798279
 20
142.632
 11
-0.668182
 21
142.668
  0
LINE
  8
0
 10
-0.668182
 20
142.668
 11
-0.536484
 21
142.697
  0
LINE
  8
0
 10
-0.536484
 20
142.697
 11
-0.403503
 21
142.72
  0
LINE
  8
0
 10
-0.403503
 20
142.72
 11
-0.269547
 21
142.737
  0
LINE
  8
0
 10
-0.269547
 20
142.737
 11
-0.134933
 21
142.747
  0
LINE
  8
0
 10
-0.134933
 20
142.747
 11
0
 21
142.75
  0
LINE
  8
0
 10
0
 20
142.75
 11
0.134933
 21
142.747
  0
LINE
  8
0
 10
0.134933
 20
142.747
 11
0.269547
 21
142.737
  0
LINE
  8
0
 10
0.269547
 20
142.737
 11
0.403503
 21
142.72
  0
LINE
  8
0
 10
0.403503
 20
142.72
 11
0.536484
 21
142.697
  0
LINE
  8
0
 10
0.536484
 20
142.697
 11
0.668182
 21
142.668
  0
LINE
  8
0
 10
0.668182
 20
142.668
 11
0.798279
 21
142.632
  0
LINE
  8
0
 10
0.798279
 20
142.632
 11
0.926437
 21
142.589
  0
LINE
  8
0
 10
0.926437
 20
142.589
 11
1.05237
 21
142.541
  0
LINE
  8
0
 10
1.05237
 20
142.541
 11
1.17577
 21
142.486
  0
LINE
  8
0
 10
1.17577
 20
142.486
 11
1.29634
 21
142.425
  0
LINE
  8
0
 10
1.29634
 20
142.425
 11
1.41377
 21
142.359
  0
LINE
  8
0
 10
1.41377
 20
142.359
 11
1.52782
 21
142.287
  0
LINE
  8
0
 10
1.52782
 20
142.287
 11
1.63817
 21
142.209
  0
LINE
  8
0
 10
1.63817
 20
142.209
 11
1.74457
 21
142.126
  0
LINE
  8
0
 10
1.74457
 20
142.126
 11
1.84679
 21
142.038
  0
LINE
  8
0
 10
1.84679
 20
142.038
 11
1.94453
 21
141.945
  0
LINE
  8
0
 10
1.94453
 20
141.945
 11
2.03761
 21
141.847
  0
LINE
  8
0
 10
2.03761
 20
141.847
 11
2.12578
 21
141.745
  0
LINE
  8
0
 10
2.12578
 20
141.745
 11
2.20882
 21
141.638
  0
LINE
  8
0
 10
2.20882
 20
141.638
 11
2.28653
 21
141.528
  0
LINE
  8
0
 10
2.28653
 20
141.528
 11
2.35875
 21
141.414
  0
LINE
  8
0
 10
2.35875
 20
141.414
 11
2.42528
 21
141.296
  0
LINE
  8
0
 10
2.42528
 20
141.296
 11
2.48596
 21
141.176
  0
LINE
  8
0
 10
2.48596
 20
141.176
 11
2.54066
 21
141.052
  0
LINE
  8
0
 10
2.54066
 20
141.052
 11
2.58923
 21
140.926
  0
LINE
  8
0
 10
2.58923
 20
140.926
 11
2.63158
 21
140.798
  0
LINE
  8
0
 10
2.63158
 20
140.798
 11
2.66757
 21
140.668
  0
LINE
  8
0
 10
2.66757
 20
140.668
 11
2.69716
 21
140.536
  0
LINE
  8
0
 10
2.69716
 20
140.536
 11
2.72023
 21
140.404
  0
LINE
  8
0
 10
2.72023
 20
140.404
 11
2.73676
 21
140.27
  0
LINE
  8
0
 10
2.73676
 20
140.27
 11
2.74667
 21
140.135
  0
LINE
  8
0
 10
2.74667
 20
140.135
 11
2.75
 21
140
  0
LINE
  8
0
 10
2.75
 20
140
 11
2.74667
 21
139.865
  0
LINE
  8
0
 10
2.74667
 20
139.865
 11
2.73676
 21
139.73
  0
LINE
  8
0
 10
2.73676
 20
139.73
 11
2.72023
 21
139.596
  0
LINE
  8
0
 10
2.72023
 20
139.596
 11
2.69716
 21
139.464
  0
LINE
  8
0
 10
2.69716
 20
139.464
 11
2.66757
 21
139.332
  0
LINE
  8
0
 10
2.66757
 20
139.332
 11
2.63158
 21
139.202
  0
LINE
  8
0
 10
2.63158
 20
139.202
 11
2.58923
 21
139.074
  0
LINE
  8
0
 10
2.58923
 20
139.074
 11
2.54066
 21
138.948
  0
LINE
  8
0
 10
2.54066
 20
138.948
 11
2.48596
 21
138.824
  0
LINE
  8
0
 10
2.48596
 20
138.824
 11
2.42528
 21
138.704
  0
LINE
  8
0
 10
2.42528
 20
138.704
 11
2.35875
 21
138.586
  0
LINE
  8
0
 10
2.35875
 20
138.586
 11
2.28653
 21
138.472
  0
LINE
  8
0
 10
2.28653
 20
138.472
 11
2.20882
 21
138.362
  0
LINE
  8
0
 10
2.20882
 20
138.362
 11
2.12578
 21
138.255
  0
LINE
  8
0
 10
2.12578
 20
138.255
 11
2.03761
 21
138.153
  0
LINE
  8
0
 10
2.03761
 20
138.153
 11
1.94453
 21
138.055
  0
LINE
  8
0
 10
1.94453
 20
138.055
 11
1.84679
 21
137.962
  0
LINE
  8
0
 10
1.84679
 20
137.962
 11
1.74457
 21
137.874
  0
LINE
  8
0
 10
1.74457
 20
137.874
 11
1.63817
 21
137.791
  0
LINE
  8
0
 10
1.63817
 20
137.791
 11
1.52782
 21
137.713
  0
LINE
  8
0
 10
1.52782
 20
137.713
 11
1.41377
 21
137.641
  0
LINE
  8
0
 10
1.41377
 20
137.641
 11
1.29634
 21
137.575
  0
LINE
  8
0
 10
1.29634
 20
137.575
 11
1.17577
 21
137.514
  0
LINE
  8
0
 10
1.17577
 20
137.514
 11
1.05237
 21
137.459
  0
LINE
  8
0
 10
1.05237
 20
137.459
 11
0.926437
 21
137.411
  0
LINE
  8
0
 10
0.926437
 20
137.411
 11
0.798279
 21
137.368
  0
LINE
  8
0
 10
0.798279
 20
137.368
 11
0.668182
 21
137.332
  0
LINE
  8
0
 10
0.668182
 20
137.332
 11
0.536484
 21
137.303
  0
LINE
  8
0
 10
0.536484
 20
137.303
 11
0.403503
 21
137.28
  0
LINE
  8
0
 10
0.403503
 20
137.28
 11
0.269547
 21
137.263
  0
LINE
  8
0
 10
0.269547
 20
137.263
 11
0.134933
 21
137.253
  0
LINE
  8
0
 10
0.134933
 20
137.253
 11
0
 21
137.25
  0
LINE
  8
0
 10
0
 20
137.25
 11
-0.134933
 21
137.253
  0
LINE
  8
0
 10
-0.134933
 20
137.253
 11
-0.269547
 21
137.263
  0
LINE
  8
0
 10
-0.269547
 20
137.263
 11
-0.403503
 21
137.28
  0
LINE
  8
0
 10
-0.403503
 20
137.28
 11
-0.536484
 21
137.303
  0
LINE
  8
0
 10
-0.536484
 20
137.303
 11
-0.668182
 21
137.332
  0
LINE
  8
0
 10
-0.668182
 20
137.332
 11
-0.798279
 21
137.368
  0
LINE
  8
0
 10
-0.798279
 20
137.368
 11
-0.926437
 21
137.411
  0
LINE
  8
0
 10
-0.926437
 20
137.411
 11
-1.05237
 21
137.459
  0
LINE
  8
0
 10
-1.05237
 20
137.459
 11
-1.17577
 21
137.514
  0
LINE
  8
0
 10
-1.17577
 20
137.514
 11
-1.29634
 21
137.575
  0
LINE
  8
0
 10
-1.29634
 20
137.575
 11
-1.41377
 21
137.641
  0
LINE
  8
0
 10
-1.41377
 20
137.641
 11
-1.52782
 21
137.713
  0
LINE
  8
0
 10
-1.52782
 20
137.713
 11
-1.63817
 21
137.791
  0
LINE
  8
0
 10
-1.63817
 20
137.791
 11
-1.74457
 21
137.874
  0
LINE
  8
0
 10
-1.74457
 20
137.874
 11
-1.84679
 21
137.962
  0
LINE
  8
0
 10
-1.84679
 20
137.962
 11
-1.94453
 21
138.055
  0
LINE
  8
0
 10
-1.94453
 20
138.055
 11
-2.03761
 21
138.153
  0
LINE
  8
0
 10
-2.03761
 20
138.153
 11
-2.12578
 21
138.255
  0
LINE
  8
0
 10
-2.12578
 20
138.255
 11
-2.20882
 21
138.362
  0
LINE
  8
0
 10
-2.20882
 20
138.362
 11
-2.28653
 21
138.472
  0
LINE
  8
0
 10
-2.28653
 20
138.472
 11
-2.35875
 21
138.586
  0
LINE
  8
0
 10
-2.35875
 20
138.586
 11
-2.42528
 21
138.704
  0
LINE
  8
0
 10
-2.42528
 20
138.704
 11
-2.48596
 21
138.824
  0
LINE
  8
0
 10
-2.48596
 20
138.824
 11
-2.54066
 21
138.948
  0
LINE
  8
0
 10
-2.54066
 20
138.948
 11
-2.58923
 21
139.074
  0
LINE
  8
0
 10
-2.58923
 20
139.074
 11
-2.63158
 21
139.202
  0
LINE
  8
0
 10
-2.63158
 20
139.202
 11
-2.66757
 21
139.332
  0
LINE
  8
0
 10
-2.66757
 20
139.332
 11
-2.69716
 21
139.464
  0
LINE
  8
0
 10
-2.69716
 20
139.464
 11
-2.72023
 21
139.596
  0
LINE
  8
0
 10
-2.72023
 20
139.596
 11
-2.73676
 21
139.73
  0
LINE
  8
0
 10
-2.73676
 20
139.73
 11
-2.74667
 21
139.865
  0
LINE
  8
0
 10
-2.74667
 20
139.865
 11
-2.75
 21
140
  0
LINE
  8
0
 10
-2.75
 20
140
 11
-2.74667
 21
140.135
  0
LINE
  8
0
 10
-2.74667
 20
140.135
 11
-2.73676
 21
140.27
  0
LINE
  8
0
 10
-2.73676
 20
140.27
 11
-2.72023
 21
140.404
  0
LINE
  8
0
 10
-2.72023
 20
140.404
 11
-2.69716
 21
140.536
  0
LINE
  8
0
 10
-2.69716
 20
140.536
 11
-2.66757
 21
140.668
  0
LINE
  8
0
 10
-2.66757
 20
140.668
 11
-2.63158
 21
140.798
  0
LINE
  8
0
 10
-2.63158
 20
140.798
 11
-2.58923
 21
140.926
  0
LINE
  8
0
 10
-2.58923
 20
140.926
 11
-2.54066
 21
141.052
  0
LINE
  8
0
 10
-2.54066
 20
141.052
 11
-2.48596
 21
141.176
  0
LINE
  8
0
 10
-2.48596
 20
141.176
 11
-2.42528
 21
141.296
  0
LINE
  8
0
 10
-2.42528
 20
141.296
 11
-2.35875
 21
141.414
  0
LINE
  8
0
 10
-2.35875
 20
141.414
 11
-2.28653
 21
141.528
  0
LINE
  8
0
 10
-2.28653
 20
141.528
 11
-2.20882
 21
141.638
  0
LINE
  8
0
 10
52.514
 20
138.824
 11
52.4593
 21
138.948
  0
LINE
  8
0
 10
52.4593
 20
138.948
 11
52.4108
 21
139.074
  0
LINE
  8
0
 10
52.4108
 20
139.074
 11
52.3684
 21
139.202
  0
LINE
  8
0
 10
52.3684
 20
139.202
 11
52.3324
 21
139.332
  0
LINE
  8
0
 10
52.3324
 20
139.332
 11
52.3028
 21
139.464
  0
LINE
  8
0
 10
52.3028
 20
139.464
 11
52.2798
 21
139.596
  0
LINE
  8
0
 10
52.2798
 20
139.596
 11
52.2632
 21
139.73
  0
LINE
  8
0
 10
52.2632
 20
139.73
 11
52.2533
 21
139.865
  0
LINE
  8
0
 10
52.2533
 20
139.865
 11
52.25
 21
140
  0
LINE
  8
0
 10
52.25
 20
140
 11
52.2533
 21
140.135
  0
LINE
  8
0
 10
52.2533
 20
140.135
 11
52.2632
 21
140.27
  0
LINE
  8
0
 10
52.2632
 20
140.27
 11
52.2798
 21
140.404
  0
LINE
  8
0
 10
52.2798
 20
140.404
 11
52.3028
 21
140.536
  0
LINE
  8
0
 10
52.3028
 20
140.536
 11
52.3324
 21
140.668
  0
LINE
  8
0
 10
52.3324
 20
140.668
 11
52.3684
 21
140.798
  0
LINE
  8
0
 10
52.3684
 20
140.798
 11
52.4108
 21
140.926
  0
LINE
  8
0
 10
52.4108
 20
140.926
 11
52.4593
 21
141.052
  0
LINE
  8
0
 10
52.4593
 20
141.052
 11
52.514
 21
141.176
  0
LINE
  8
0
 10
52.514
 20
141.176
 11
52.5747
 21
141.296
  0
LINE
  8
0
 10
52.5747
 20
141.296
 11
52.6412
 21
141.414
  0
LINE
  8
0
 10
52.6412
 20
141.414
 11
52.7135
 21
141.528
  0
LINE
  8
0
 10
52.7135
 20
141.528
 11
52.7912
 21
141.638
  0
LINE
  8
0
 10
52.7912
 20
141.638
 11
52.8742
 21
141.745
  0
LINE
  8
0
 10
52.8742
 20
141.745
 11
52.9624
 21
141.847
  0
LINE
  8
0
 10
52.9624
 20
141.847
 11
53.0555
 21
141.945
  0
LINE
  8
0
 10
53.0555
 20
141.945
 11
53.1532
 21
142.038
  0
LINE
  8
0
 10
53.1532
 20
142.038
 11
53.2554
 21
142.126
  0
LINE
  8
0
 10
53.2554
 20
142.126
 11
53.3618
 21
142.209
  0
LINE
  8
0
 10
53.3618
 20
142.209
 11
53.4722
 21
142.287
  0
LINE
  8
0
 10
53.4722
 20
142.287
 11
53.5862
 21
142.359
  0
LINE
  8
0
 10
53.5862
 20
142.359
 11
53.7037
 21
142.425
  0
LINE
  8
0
 10
53.7037
 20
142.425
 11
53.8242
 21
142.486
  0
LINE
  8
0
 10
53.8242
 20
142.486
 11
53.9476
 21
142.541
  0
LINE
  8
0
 10
53.9476
 20
142.541
 11
54.0735
 21
142.589
  0
LINE
  8
0
 10
54.0735
 20
142.589
 11
54.2017
 21
142.632
  0
LINE
  8
0
 10
54.2017
 20
142.632
 11
54.3318
 21
142.668
  0
LINE
  8
0
 10
54.3318
 20
142.668
 11
54.4635
 21
142.697
  0
LINE
  8
0
 10
54.4635
 20
142.697
 11
54.5965
 21
142.72
  0
LINE
  8
0
 10
54.5965
 20
142.72
 11
54.7305
 21
142.737
  0
LINE
  8
0
 10
54.7305
 20
142.737
 11
54.8651
 21
142.747
  0
LINE
  8
0
 10
54.8651
 20
142.747
 11
55
 21
142.75
  0
LINE
  8
0
 10
55
 20
142.75
 11
55.1349
 21
142.747
  0
LINE
  8
0
 10
55.1349
 20
142.747
 11
55.2695
 21
142.737
  0
LINE
  8
0
 10
55.2695
 20
142.737
 11
55.4035
 21
142.72
  0
LINE
  8
0
 10
55.4035
 20
142.72
 11
55.5365
 21
142.697
  0
LINE
  8
0
 10
55.5365
 20
142.697
 11
55.6682
 21
142.668
  0
LINE
  8
0
 10
55.6682
 20
142.668
 11
55.7983
 21
142.632
  0
LINE
  8
0
 10
55.7983
 20
142.632
 11
55.9264
 21
142.589
  0
LINE
  8
0
 10
55.9264
 20
142.589
 11
56.0524
 21
142.541
  0
LINE
  8
0
 10
56.0524
 20
142.541
 11
56.1758
 21
142.486
  0
LINE
  8
0
 10
56.1758
 20
142.486
 11
56.2963
 21
142.425
  0
LINE
  8
0
 10
56.2963
 20
142.425
 11
56.4138
 21
142.359
  0
LINE
  8
0
 10
56.4138
 20
142.359
 11
56.5278
 21
142.287
  0
LINE
  8
0
 10
56.5278
 20
142.287
 11
56.6382
 21
142.209
  0
LINE
  8
0
 10
56.6382
 20
142.209
 11
56.7446
 21
142.126
  0
LINE
  8
0
 10
56.7446
 20
142.126
 11
56.8468
 21
142.038
  0
LINE
  8
0
 10
56.8468
 20
142.038
 11
56.9445
 21
141.945
  0
LINE
  8
0
 10
56.9445
 20
141.945
 11
57.0376
 21
141.847
  0
LINE
  8
0
 10
57.0376
 20
141.847
 11
57.1258
 21
141.745
  0
LINE
  8
0
 10
57.1258
 20
141.745
 11
57.2088
 21
141.638
  0
LINE
  8
0
 10
57.2088
 20
141.638
 11
57.2865
 21
141.528
  0
LINE
  8
0
 10
57.2865
 20
141.528
 11
57.3587
 21
141.414
  0
LINE
  8
0
 10
57.3587
 20
141.414
 11
57.4253
 21
141.296
  0
LINE
  8
0
 10
57.4253
 20
141.296
 11
57.486
 21
141.176
  0
LINE
  8
0
 10
57.486
 20
141.176
 11
57.5407
 21
141.052
  0
LINE
  8
0
 10
57.5407
 20
141.052
 11
57.5892
 21
140.926
  0
LINE
  8
0
 10
57.5892
 20
140.926
 11
57.6316
 21
140.798
  0
LINE
  8
0
 10
57.6316
 20
140.798
 11
57.6676
 21
140.668
  0
LINE
  8
0
 10
57.6676
 20
140.668
 11
57.6972
 21
140.536
  0
LINE
  8
0
 10
57.6972
 20
140.536
 11
57.7202
 21
140.404
  0
LINE
  8
0
 10
57.7202
 20
140.404
 11
57.7368
 21
140.27
  0
LINE
  8
0
 10
57.7368
 20
140.27
 11
57.7467
 21
140.135
  0
LINE
  8
0
 10
57.7467
 20
140.135
 11
57.75
 21
140
  0
LINE
  8
0
 10
57.75
 20
140
 11
57.7467
 21
139.865
  0
LINE
  8
0
 10
57.7467
 20
139.865
 11
57.7368
 21
139.73
  0
LINE
  8
0
 10
57.7368
 20
139.73
 11
57.7202
 21
139.596
  0
LINE
  8
0
 10
57.7202
 20
139.596
 11
57.6972
 21
139.464
  0
LINE
  8
0
 10
57.6972
 20
139.464
 11
57.6676
 21
139.332
  0
LINE
  8
0
 10
57.6676
 20
139.332
 11
57.6316
 21
139.202
  0
LINE
  8
0
 10
57.6316
 20
139.202
 11
57.5892
 21
139.074
  0
LINE
  8
0
 10
57.5892
 20
139.074
 11
57.5407
 21
138.948
  0
LINE
  8
0
 10
57.5407
 20
138.948
 11
57.486
 21
138.824
  0
LINE
  8
0
 10
57.486
 20
138.824
 11
57.4253
 21
138.704
  0
LINE
  8
0
 10
57.4253
 20
138.704
 11
57.3587
 21
138.586
  0
LINE
  8
0
 10
57.3587
 20
138.586
 11
57.2865
 21
138.472
  0
LINE
  8
0
 10
57.2865
 20
138.472
 11
57.2088
 21
138.362
  0
LINE
  8
0
 10
57.2088
 20
138.362
 11
57.1258
 21
138.255
  0
LINE
  8
0
 10
57.1258
 20
138.255
 11
57.0376
 21
138.153
  0
LINE
  8
0
 10
57.0376
 20
138.153
 11
56.9445
 21
138.055
  0
LINE
  8
0
 10
56.9445
 20
138.055
 11
56.8468
 21
137.962
  0
LINE
  8
0
 10
56.8468
 20
137.962
 11
56.7446
 21
137.874
  0
LINE
  8
0
 10
56.7446
 20
137.874
 11
56.6382
 21
137.791
  0
LINE
  8
0
 10
56.6382
 20
137.791
 11
56.5278
 21
137.713
  0
LINE
  8
0
 10
56.5278
 20
137.713
 11
56.4138
 21
137.641
  0
LINE
  8
0
 10
56.4138
 20
137.641
 11
56.2963
 21
137.575
  0
LINE
  8
0
 10
56.2963
 20
137.575
 11
56.1758
 21
137.514
  0
LINE
  8
0
 10
56.1758
 20
137.514
 11
56.0524
 21
137.459
  0
LINE
  8
0
 10
56.0524
 20
137.459
 11
55.9264
 21
137.411
  0
LINE
  8
0
 10
55.9264
 20
137.411
 11
55.7983
 21
137.368
  0
LINE
  8
0
 10
55.7983
 20
137.368
 11
55.6682
 21
137.332
  0
LINE
  8
0
 10
55.6682
 20
137.332
 11
55.5365
 21
137.303
  0
LINE
  8
0
 10
55.5365
 20
137.303
 11
55.4035
 21
137.28
  0
LINE
  8
0
 10
55.4035
 20
137.28
 11
55.2695
 21
137.263
  0
LINE
  8
0
 10
55.2695
 20
137.263
 11
55.1349
 21
137.253
  0
LINE
  8
0
 10
55.1349
 20
137.253
 11
55
 21
137.25
  0
LINE
  8
0
 10
55
 20
137.25
 11
54.8651
 21
137.253
  0
LINE
  8
0
 10
54.8651
 20
137.253
 11
54.7305
 21
137.263
  0
LINE
  8
0
 10
54.7305
 20
137.263
 11
54.5965
 21
137.28
  0
LINE
  8
0
 10
54.5965
 20
137.28
 11
54.4635
 21
137.303
  0
LINE
  8
0
 10
54.4635
 20
137.303
 11
54.3318
 21
137.332
  0
LINE
  8
0
 10
54.3318
 20
137.332
 11
54.2017
 21
137.368
  0
LINE
  8
0
 10
54.2017
 20
137.368
 11
54.0735
 21
137.411
  0
LINE
  8
0
 10
54.0735
 20
137.411
 11
53.9476
 21
137.459
  0
LINE
  8
0
 10
53.9476
 20
137.459
 11
53.8242
 21
137.514
  0
LINE
  8
0
 10
53.8242
 20
137.514
 11
53.7037
 21
137.575
  0
LINE
  8
0
 10
53.7037
 20
137.575
 11
53.5862
 21
137.641
  0
LINE
  8
0
 10
53.5862
 20
137.641
 11
53.4722
 21
137.713
  0
LINE
  8
0
 10
53.4722
 20
137.713
 11
53.3618
 21
137.791
  0
LINE
  8
0
 10
53.3618
 20
137.791
 11
53.2554
 21
137.874
  0
LINE
  8
0
 10
53.2554
 20
137.874
 11
53.1532
 21
137.962
  0
LINE
  8
0
 10
53.1532
 20
137.962
 11
53.0555
 21
138.055
  0
LINE
  8
0
 10
53.0555
 20
138.055
 11
52.9624
 21
138.153
  0
LINE
  8
0
 10
52.9624
 20
138.153
 11
52.8742
 21
138.255
  0
LINE
  8
0
 10
52.8742
 20
138.255
 11
52.7912
 21
138.362
  0
LINE
  8
0
 10
52.7912
 20
138.362
 11
52.7135
 21
138.472
  0
LINE
  8
0
 10
52.7135
 20
138.472
 11
52.6412
 21
138.586
  0
LINE
  8
0
 10
52.6412
 20
138.586
 11
52.5747
 21
138.704
  0
LINE
  8
0
 10
52.5747
 20
138.704
 11
52.514
 21
138.824
  0
LINE
  8
0
 10
-109.464
 20
142.697
 11
-109.332
 21
142.668
  0
LINE
  8
0
 10
-109.332
 20
142.668
 11
-109.202
 21
142.632
  0
LINE
  8
0
 10
-109.202
 20
142.632
 11
-109.074
 21
142.589
  0
LINE
  8
0
 10
-109.074
 20
142.589
 11
-108.948
 21
142.541
  0
LINE
  8
0
 10
-108.948
 20
142.541
 11
-108.824
 21
142.486
  0
LINE
  8
0
 10
-108.824
 20
142.486
 11
-108.704
 21
142.425
  0
LINE
  8
0
 10
-108.704
 20
142.425
 11
-108.586
 21
142.359
  0
LINE
  8
0
 10
-108.586
 20
142.359
 11
-108.472
 21
142.287
  0
LINE
  8
0
 10
-108.472
 20
142.287
 11
-108.362
 21
142.209
  0
LINE
  8
0
 10
-108.362
 20
142.209
 11
-108.255
 21
142.126
  0
LINE
  8
0
 10
-108.255
 20
142.126
 11
-108.153
 21
142.038
  0
LINE
  8
0
 10
-108.153
 20
142.038
 11
-108.055
 21
141.945
  0
LINE
  8
0
 10
-108.055
 20
141.945
 11
-107.962
 21
141.847
  0
LINE
  8
0
 10
-107.962
 20
141.847
 11
-107.874
 21
141.745
  0
LINE
  8
0
 10
-107.874
 20
141.745
 11
-107.791
 21
141.638
  0
LINE
  8
0
 10
-107.791
 20
141.638
 11
-107.713
 21
141.528
  0
LINE
  8
0
 10
-107.713
 20
141.528
 11
-107.641
 21
141.414
  0
LINE
  8
0
 10
-107.641
 20
141.414
 11
-107.575
 21
141.296
  0
LINE
  8
0
 10
-107.575
 20
141.296
 11
-107.514
 21
141.176
  0
LINE
  8
0
 10
-107.514
 20
141.176
 11
-107.459
 21
141.052
  0
LINE
  8
0
 10
-107.459
 20
141.052
 11
-107.411
 21
140.926
  0
LINE
  8
0
 10
-107.411
 20
140.926
 11
-107.368
 21
140.798
  0
LINE
  8
0
 10
-107.368
 20
140.798
 11
-107.332
 21
140.668
  0
LINE
  8
0
 10
-107.332
 20
140.668
 11
-107.303
 21
140.536
  0
LINE
  8
0
 10
-107.303
 20
140.536
 11
-107.28
 21
140.404
  0
LINE
  8
0
 10
-107.28
 20
140.404
 11
-107.263
 21
140.27
  0
LINE
  8
0
 10
-107.263
 20
140.27
 11
-107.253
 21
140.135
  0
LINE
  8
0
 10
-107.253
 20
140.135
 11
-107.25
 21
140
  0
LINE
  8
0
 10
-107.25
 20
140
 11
-107.253
 21
139.865
  0
LINE
  8
0
 10
-107.253
 20
139.865
 11
-107.263
 21
139.73
  0
LINE
  8
0
 10
-107.263
 20
139.73
 11
-107.28
 21
139.596
  0
LINE
  8
0
 10
-107.28
 20
139.596
 11
-107.303
 21
139.464
  0
LINE
  8
0
 10
-107.303
 20
139.464
 11
-107.332
 21
139.332
  0
LINE
  8
0
 10
-107.332
 20
139.332
 11
-107.368
 21
139.202
  0
LINE
  8
0
 10
-107.368
 20
139.202
 11
-107.411
 21
139.074
  0
LINE
  8
0
 10
-107.411
 20
139.074
 11
-107.459
 21
138.948
  0
LINE
  8
0
 10
-107.459
 20
138.948
 11
-107.514
 21
138.824
  0
LINE
  8
0
 10
-107.514
 20
138.824
 11
-107.575
 21
138.704
  0
LINE
  8
0
 10
-107.575
 20
138.704
 11
-107.641
 21
138.586
  0
LINE
  8
0
 10
-107.641
 20
138.586
 11
-107.713
 21
138.472
  0
LINE
  8
0
 10
-107.713
 20
138.472
 11
-107.791
 21
138.362
  0
LINE
  8
0
 10
-107.791
 20
138.362
 11
-107.874
 21
138.255
  0
LINE
  8
0
 10
-107.874
 20
138.255
 11
-107.962
 21
138.153
  0
LINE
  8
0
 10
-107.962
 20
138.153
 11
-108.055
 21
138.055
  0
LINE
  8
0
 10
-108.055
 20
138.055
 11
-108.153
 21
137.962
  0
LINE
  8
0
 10
-108.153
 20
137.962
 11
-108.255
 21
137.874
  0
LINE
  8
0
 10
-108.255
 20
137.874
 11
-108.362
 21
137.791
  0
LINE
  8
0
 10
-108.362
 20
137.791
 11
-108.472
 21
137.713
  0
LINE
  8
0
 10
-108.472
 20
137.713
 11
-108.586
 21
137.641
  0
LINE
  8
0
 10
-108.586
 20
137.641
 11
-108.704
 21
137.575
  0
LINE
  8
0
 10
-108.704
 20
137.575
 11
-108.824
 21
137.514
  0
LINE
  8
0
 10
-108.824
 20
137.514
 11
-108.948
 21
137.459
  0
LINE
  8
0
 10
-108.948
 20
137.459
 11
-109.074
 21
137.411
  0
LINE
  8
0
 10
-109.074
 20
137.411
 11
-109.202
 21
137.368
  0
LINE
  8
0
 10
-109.202
 20
137.368
 11
-109.332
 21
137.332
  0
LINE
  8
0
 10
-109.332
 20
137.332
 11
-109.464
 21
137.303
  0
LINE
  8
0
 10
-109.464
 20
137.303
 11
-109.596
 21
137.28
  0
LINE
  8
0
 10
-109.596
 20
137.28
 11
-109.73
 21
137.263
  0
LINE
  8
0
 10
-109.73
 20
137.263
 11
-109.865
 21
137.253
  0
LINE
  8
0
 10
-109.865
 20
137.253
 11
-110
 21
137.25
  0
LINE
  8
0
 10
-110
 20
137.25
 11
-110.135
 21
137.253
  0
LINE
  8
0
 10
-110.135
 20
137.253
 11
-110.27
 21
137.263
  0
LINE
  8
0
 10
-110.27
 20
137.263
 11
-110.404
 21
137.28
  0
LINE
  8
0
 10
-110.404
 20
137.28
 11
-110.536
 21
137.303
  0
LINE
  8
0
 10
-110.536
 20
137.303
 11
-110.668
 21
137.332
  0
LINE
  8
0
 10
-110.668
 20
137.332
 11
-110.798
 21
137.368
  0
LINE
  8
0
 10
-110.798
 20
137.368
 11
-110.926
 21
137.411
  0
LINE
  8
0
 10
-110.926
 20
137.411
 11
-111.052
 21
137.459
  0
LINE
  8
0
 10
-111.052
 20
137.459
 11
-111.176
 21
137.514
  0
LINE
  8
0
 10
-111.176
 20
137.514
 11
-111.296
 21
137.575
  0
LINE
  8
0
 10
-111.296
 20
137.575
 11
-111.414
 21
137.641
  0
LINE
  8
0
 10
-111.414
 20
137.641
 11
-111.528
 21
137.713
  0
LINE
  8
0
 10
-111.528
 20
137.713
 11
-111.638
 21
137.791
  0
LINE
  8
0
 10
-111.638
 20
137.791
 11
-111.745
 21
137.874
  0
LINE
  8
0
 10
-111.745
 20
137.874
 11
-111.847
 21
137.962
  0
LINE
  8
0
 10
-111.847
 20
137.962
 11
-111.945
 21
138.055
  0
LINE
  8
0
 10
-111.945
 20
138.055
 11
-112.038
 21
138.153
  0
LINE
  8
0
 10
-112.038
 20
138.153
 11
-112.126
 21
138.255
  0
LINE
  8
0
 10
-112.126
 20
138.255
 11
-112.209
 21
138.362
  0
LINE
  8
0
 10
-112.209
 20
138.362
 11
-112.287
 21
138.472
  0
LINE
  8
0
 10
-112.287
 20
138.472
 11
-112.359
 21
138.586
  0
LINE
  8
0
 10
-112.359
 20
138.586
 11
-112.425
 21
138.704
  0
LINE
  8
0
 10
-112.425
 20
138.704
 11
-112.486
 21
138.824
  0
LINE
  8
0
 10
-112.486
 20
138.824
 11
-112.541
 21
138.948
  0
LINE
  8
0
 10
-112.541
 20
138.948
 11
-112.589
 21
139.074
  0
LINE
  8
0
 10
-112.589
 20
139.074
 11
-112.632
 21
139.202
  0
LINE
  8
0
 10
-112.632
 20
139.202
 11
-112.668
 21
139.332
  0
LINE
  8
0
 10
-112.668
 20
139.332
 11
-112.697
 21
139.464
  0
LINE
  8
0
 10
-112.697
 20
139.464
 11
-112.72
 21
139.596
  0
LINE
  8
0
 10
-112.72
 20
139.596
 11
-112.737
 21
139.73
  0
LINE
  8
0
 10
-112.737
 20
139.73
 11
-112.747
 21
139.865
  0
LINE
  8
0
 10
-112.747
 20
139.865
 11
-112.75
 21
140
  0
LINE
  8
0
 10
-112.75
 20
140
 11
-112.747
 21
140.135
  0
LINE
  8
0
 10
-112.747
 20
140.135
 11
-112.737
 21
140.27
  0
LINE
  8
0
 10
-112.737
 20
140.27
 11
-112.72
 21
140.404
  0
LINE
  8
0
 10
-112.72
 20
140.404
 11
-112.697
 21
140.536
  0
LINE
  8
0
 10
-112.697
 20
140.536
 11
-112.668
 21
140.668
  0
LINE
  8
0
 10
-112.668
 20
140.668
 11
-112.632
 21
140.798
  0
LINE
  8
0
 10
-112.632
 20
140.798
 11
-112.589
 21
140.926
  0
LINE
  8
0
 10
-112.589
 20
140.926
 11
-112.541
 21
141.052
  0
LINE
  8
0
 10
-112.541
 20
141.052
 11
-112.486
 21
141.176
  0
LINE
  8
0
 10
-112.486
 20
141.176
 11
-112.425
 21
141.296
  0
LINE
  8
0
 10
-112.425
 20
141.296
 11
-112.359
 21
141.414
  0
LINE
  8
0
 10
-112.359
 20
141.414
 11
-112.287
 21
141.528
  0
LINE
  8
0
 10
-112.287
 20
141.528
 11
-112.209
 21
141.638
  0
LINE
  8
0
 10
-112.209
 20
141.638
 11
-112.126
 21
141.745
  0
LINE
  8
0
 10
-112.126
 20
141.745
 11
-112.038
 21
141.847
  0
LINE
  8
0
 10
-112.038
 20
141.847
 11
-111.945
 21
141.945
  0
LINE
  8
0
 10
-111.945
 20
141.945
 11
-111.847
 21
142.038
  0
LINE
  8
0
 10
-111.847
 20
142.038
 11
-111.745
 21
142.126
  0
LINE
  8
0
 10
-111.745
 20
142.126
 11
-111.638
 21
142.209
  0
LINE
  8
0
 10
-111.638
 20
142.209
 11
-111.528
 21
142.287
  0
LINE
  8
0
 10
-111.528
 20
142.287
 11
-111.414
 21
142.359
  0
LINE
  8
0
 10
-111.414
 20
142.359
 11
-111.296
 21
142.425
  0
LINE
  8
0
 10
-111.296
 20
142.425
 11
-111.176
 21
142.486
  0
LINE
  8
0
 10
-111.176
 20
142.486
 11
-111.052
 21
142.541
  0
LINE
  8
0
 10
-111.052
 20
142.541
 11
-110.926
 21
142.589
  0
LINE
  8
0
 10
-110.926
 20
142.589
 11
-110.798
 21
142.632
  0
LINE
  8
0
 10
-110.798
 20
142.632
 11
-110.668
 21
142.668
  0
LINE
  8
0
 10
-110.668
 20
142.668
 11
-110.536
 21
142.697
  0
LINE
  8
0
 10
-110.536
 20
142.697
 11
-110.404
 21
142.72
  0
LINE
  8
0
 10
-110.404
 20
142.72
 11
-110.27
 21
142.737
  0
LINE
  8
0
 10
-110.27
 20
142.737
 11
-110.135
 21
142.747
  0
LINE
  8
0
 10
-110.135
 20
142.747
 11
-110
 21
142.75
  0
LINE
  8
0
 10
-110
 20
142.75
 11
-109.865
 21
142.747
  0
LINE
  8
0
 10
-109.865
 20
142.747
 11
-109.73
 21
142.737
  0
LINE
  8
0
 10
-109.73
 20
142.737
 11
-109.596
 21
142.72
  0
LINE
  8
0
 10
-109.596
 20
142.72
 11
-109.464
 21
142.697
  0
LINE
  8
0
 10
-6.63251
 20
58.6758
 11
-6.52574
 21
58.6153
  0
LINE
  8
0
 10
-6.52574
 20
58.6153
 11
-6.42207
 21
58.5497
  0
LINE
  8
0
 10
-6.42207
 20
58.5497
 11
-6.32175
 21
58.479
  0
LINE
  8
0
 10
-6.32175
 20
58.479
 11
-6.22501
 21
58.4035
  0
LINE
  8
0
 10
-6.22501
 20
58.4035
 11
-6.1321
 21
58.3234
  0
LINE
  8
0
 10
-6.1321
 20
58.3234
 11
-6.04323
 21
58.2388
  0
LINE
  8
0
 10
-6.04323
 20
58.2388
 11
-5.95862
 21
58.1499
  0
LINE
  8
0
 10
-5.95862
 20
58.1499
 11
-5.87846
 21
58.057
  0
LINE
  8
0
 10
-5.87846
 20
58.057
 11
-5.80298
 21
57.9602
  0
LINE
  8
0
 10
-5.80298
 20
57.9602
 11
-5.73232
 21
57.8599
  0
LINE
  8
0
 10
-5.73232
 20
57.8599
 11
-5.66667
 21
57.7563
  0
LINE
  8
0
 10
-5.66667
 20
57.7563
 11
-5.60619
 21
57.6495
  0
LINE
  8
0
 10
-5.60619
 20
57.6495
 11
-5.55103
 21
57.5399
  0
LINE
  8
0
 10
-5.55103
 20
57.5399
 11
-5.5013
 21
57.4277
  0
LINE
  8
0
 10
-5.5013
 20
57.4277
 11
-5.45714
 21
57.3132
  0
LINE
  8
0
 10
-5.45714
 20
57.3132
 11
-5.41864
 21
57.1967
  0
LINE
  8
0
 10
-5.41864
 20
57.1967
 11
-5.38591
 21
57.0784
  0
LINE
  8
0
 10
-5.38591
 20
57.0784
 11
-5.35902
 21
56.9587
  0
LINE
  8
0
 10
-5.35902
 20
56.9587
 11
-5.33806
 21
56.8378
  0
LINE
  8
0
 10
-5.33806
 20
56.8378
 11
-5.32303
 21
56.716
  0
LINE
  8
0
 10
-5.32303
 20
56.716
 11
-5.31401
 21
56.5937
  0
LINE
  8
0
 10
-5.31401
 20
56.5937
 11
-5.31099
 21
56.471
  0
LINE
  8
0
 10
-5.31099
 20
56.471
 11
-5.31401
 21
56.3483
  0
LINE
  8
0
 10
-5.31401
 20
56.3483
 11
-5.32303
 21
56.226
  0
LINE
  8
0
 10
-5.32303
 20
56.226
 11
-5.33806
 21
56.1042
  0
LINE
  8
0
 10
-5.33806
 20
56.1042
 11
-5.35902
 21
55.9833
  0
LINE
  8
0
 10
-5.35902
 20
55.9833
 11
-5.38591
 21
55.8635
  0
LINE
  8
0
 10
-5.38591
 20
55.8635
 11
-5.41864
 21
55.7453
  0
LINE
  8
0
 10
-5.41864
 20
55.7453
 11
-5.45714
 21
55.6288
  0
LINE
  8
0
 10
-5.45714
 20
55.6288
 11
-5.5013
 21
55.5143
  0
LINE
  8
0
 10
-5.5013
 20
55.5143
 11
-5.55103
 21
55.4021
  0
LINE
  8
0
 10
-5.55103
 20
55.4021
 11
-5.60619
 21
55.2925
  0
LINE
  8
0
 10
-5.60619
 20
55.2925
 11
-5.66667
 21
55.1857
  0
LINE
  8
0
 10
-5.66667
 20
55.1857
 11
-5.73232
 21
55.0821
  0
LINE
  8
0
 10
-5.73232
 20
55.0821
 11
-5.80298
 21
54.9818
  0
LINE
  8
0
 10
-5.80298
 20
54.9818
 11
-5.87846
 21
54.885
  0
LINE
  8
0
 10
-5.87846
 20
54.885
 11
-5.95862
 21
54.7921
  0
LINE
  8
0
 10
-5.95862
 20
54.7921
 11
-6.04323
 21
54.7032
  0
LINE
  8
0
 10
-6.04323
 20
54.7032
 11
-6.1321
 21
54.6186
  0
LINE
  8
0
 10
-6.1321
 20
54.6186
 11
-6.22501
 21
54.5385
  0
LINE
  8
0
 10
-6.22501
 20
54.5385
 11
-6.32175
 21
54.463
  0
LINE
  8
0
 10
-6.32175
 20
54.463
 11
-6.42207
 21
54.3923
  0
LINE
  8
0
 10
-6.42207
 20
54.3923
 11
-6.52574
 21
54.3267
  0
LINE
  8
0
 10
-6.52574
 20
54.3267
 11
-6.63251
 21
54.2662
  0
LINE
  8
0
 10
-6.63251
 20
54.2662
 11
-6.74211
 21
54.211
  0
LINE
  8
0
 10
-6.74211
 20
54.211
 11
-6.85428
 21
54.1613
  0
LINE
  8
0
 10
-6.85428
 20
54.1613
 11
-6.96877
 21
54.1171
  0
LINE
  8
0
 10
-6.96877
 20
54.1171
 11
-7.08528
 21
54.0786
  0
LINE
  8
0
 10
-7.08528
 20
54.0786
 11
-7.20354
 21
54.0459
  0
LINE
  8
0
 10
-7.20354
 20
54.0459
 11
-7.32327
 21
54.019
  0
LINE
  8
0
 10
-7.32327
 20
54.019
 11
-7.44417
 21
53.998
  0
LINE
  8
0
 10
-7.44417
 20
53.998
 11
-7.56595
 21
53.983
  0
LINE
  8
0
 10
-7.56595
 20
53.983
 11
-7.68832
 21
53.974
  0
LINE
  8
0
 10
-7.68832
 20
53.974
 11
-7.81099
 21
53.971
  0
LINE
  8
0
 10
-7.81099
 20
53.971
 11
-7.93365
 21
53.974
  0
LINE
  8
0
 10
-7.93365
 20
53.974
 11
-8.05603
 21
53.983
  0
LINE
  8
0
 10
-8.05603
 20
53.983
 11
-8.17783
 21
53.998
  0
LINE
  8
0
 10
-8.17783
 20
53.998
 11
-8.29872
 21
54.019
  0
LINE
  8
0
 10
-8.29872
 20
54.019
 11
-8.41844
 21
54.0459
  0
LINE
  8
0
 10
-8.41844
 20
54.0459
 11
-8.5367
 21
54.0786
  0
LINE
  8
0
 10
-8.5367
 20
54.0786
 11
-8.65321
 21
54.1171
  0
LINE
  8
0
 10
-8.65321
 20
54.1171
 11
-8.7677
 21
54.1613
  0
LINE
  8
0
 10
-8.7677
 20
54.1613
 11
-8.87988
 21
54.211
  0
LINE
  8
0
 10
-8.87988
 20
54.211
 11
-8.98949
 21
54.2662
  0
LINE
  8
0
 10
-8.98949
 20
54.2662
 11
-9.09625
 21
54.3267
  0
LINE
  8
0
 10
-9.09625
 20
54.3267
 11
-9.19992
 21
54.3923
  0
LINE
  8
0
 10
-9.19992
 20
54.3923
 11
-9.30025
 21
54.463
  0
LINE
  8
0
 10
-9.30025
 20
54.463
 11
-9.39697
 21
54.5385
  0
LINE
  8
0
 10
-9.39697
 20
54.5385
 11
-9.48988
 21
54.6186
  0
LINE
  8
0
 10
-9.48988
 20
54.6186
 11
-9.57877
 21
54.7032
  0
LINE
  8
0
 10
-9.57877
 20
54.7032
 11
-9.66338
 21
54.7921
  0
LINE
  8
0
 10
-9.66338
 20
54.7921
 11
-9.74352
 21
54.885
  0
LINE
  8
0
 10
-9.74352
 20
54.885
 11
-9.81902
 21
54.9818
  0
LINE
  8
0
 10
-9.81902
 20
54.9818
 11
-9.88966
 21
55.0821
  0
LINE
  8
0
 10
-9.88966
 20
55.0821
 11
-9.95531
 21
55.1857
  0
LINE
  8
0
 10
-9.95531
 20
55.1857
 11
-10.0158
 21
55.2925
  0
LINE
  8
0
 10
-10.0158
 20
55.2925
 11
-10.071
 21
55.4021
  0
LINE
  8
0
 10
-10.071
 20
55.4021
 11
-10.1207
 21
55.5143
  0
LINE
  8
0
 10
-10.1207
 20
55.5143
 11
-10.1649
 21
55.6288
  0
LINE
  8
0
 10
-10.1649
 20
55.6288
 11
-10.2033
 21
55.7453
  0
LINE
  8
0
 10
-10.2033
 20
55.7453
 11
-10.2361
 21
55.8635
  0
LINE
  8
0
 10
-10.2361
 20
55.8635
 11
-10.263
 21
55.9833
  0
LINE
  8
0
 10
-10.263
 20
55.9833
 11
-10.2839
 21
56.1042
  0
LINE
  8
0
 10
-10.2839
 20
56.1042
 11
-10.299
 21
56.226
  0
LINE
  8
0
 10
-10.299
 20
56.226
 11
-10.308
 21
56.3483
  0
LINE
  8
0
 10
-10.308
 20
56.3483
 11
-10.311
 21
56.471
  0
LINE
  8
0
 10
-10.311
 20
56.471
 11
-10.308
 21
56.5937
  0
LINE
  8
0
 10
-10.308
 20
56.5937
 11
-10.299
 21
56.716
  0
LINE
  8
0
 10
-10.299
 20
56.716
 11
-10.2839
 21
56.8378
  0
LINE
  8
0
 10
-10.2839
 20
56.8378
 11
-10.263
 21
56.9587
  0
LINE
  8
0
 10
-10.263
 20
56.9587
 11
-10.2361
 21
57.0784
  0
LINE
  8
0
 10
-10.2361
 20
57.0784
 11
-10.2033
 21
57.1967
  0
LINE
  8
0
 10
-10.2033
 20
57.1967
 11
-10.1649
 21
57.3132
  0
LINE
  8
0
 10
-10.1649
 20
57.3132
 11
-10.1207
 21
57.4277
  0
LINE
  8
0
 10
-10.1207
 20
57.4277
 11
-10.071
 21
57.5399
  0
LINE
  8
0
 10
-10.071
 20
57.5399
 11
-10.0158
 21
57.6495
  0
LINE
  8
0
 10
-10.0158
 20
57.6495
 11
-9.95531
 21
57.7563
  0
LINE
  8
0
 10
-9.95531
 20
57.7563
 11
-9.88966
 21
57.8599
  0
LINE
  8
0
 10
-9.88966
 20
57.8599
 11
-9.81902
 21
57.9602
  0
LINE
  8
0
 10
-9.81902
 20
57.9602
 11
-9.74352
 21
58.057
  0
LINE
  8
0
 10
-9.74352
 20
58.057
 11
-9.66338
 21
58.1499
  0
LINE
  8
0
 10
-9.66338
 20
58.1499
 11
-9.57877
 21
58.2388
  0
LINE
  8
0
 10
-9.57877
 20
58.2388
 11
-9.48988
 21
58.3234
  0
LINE
  8
0
 10
-9.48988
 20
58.3234
 11
-9.39697
 21
58.4035
  0
LINE
  8
0
 10
-9.39697
 20
58.4035
 11
-9.30025
 21
58.479
  0
LINE
  8
0
 10
-9.30025
 20
58.479
 11
-9.19992
 21
58.5497
  0
LINE
  8
0
 10
-9.19992
 20
58.5497
 11
-9.09625
 21
58.6153
  0
LINE
  8
0
 10
-9.09625
 20
58.6153
 11
-8.98949
 21
58.6758
  0
LINE
  8
0
 10
-8.98949
 20
58.6758
 11
-8.87988
 21
58.731
  0
LINE
  8
0
 10
-8.87988
 20
58.731
 11
-8.7677
 21
58.7807
  0
LINE
  8
0
 10
-8.7677
 20
58.7807
 11
-8.65321
 21
58.8249
  0
LINE
  8
0
 10
-8.65321
 20
58.8249
 11
-8.5367
 21
58.8633
  0
LINE
  8
0
 10
-8.5367
 20
58.8633
 11
-8.41844
 21
58.8961
  0
LINE
  8
0
 10
-8.41844
 20
58.8961
 11
-8.29872
 21
58.923
  0
LINE
  8
0
 10
-8.29872
 20
58.923
 11
-8.17783
 21
58.9439
  0
LINE
  8
0
 10
-8.17783
 20
58.9439
 11
-8.05603
 21
58.959
  0
LINE
  8
0
 10
-8.05603
 20
58.959
 11
-7.93365
 21
58.968
  0
LINE
  8
0
 10
-7.93365
 20
58.968
 11
-7.81099
 21
58.971
  0
LINE
  8
0
 10
-7.81099
 20
58.971
 11
-7.68832
 21
58.968
  0
LINE
  8
0
 10
-7.68832
 20
58.968
 11
-7.56595
 21
58.959
  0
LINE
  8
0
 10
-7.56595
 20
58.959
 11
-7.44417
 21
58.9439
  0
LINE
  8
0
 10
-7.44417
 20
58.9439
 11
-7.32327
 21
58.923
  0
LINE
  8
0
 10
-7.32327
 20
58.923
 11
-7.20354
 21
58.8961
  0
LINE
  8
0
 10
-7.20354
 20
58.8961
 11
-7.08528
 21
58.8633
  0
LINE
  8
0
 10
-7.08528
 20
58.8633
 11
-6.96877
 21
58.8249
  0
LINE
  8
0
 10
-6.96877
 20
58.8249
 11
-6.85428
 21
58.7807
  0
LINE
  8
0
 10
-6.85428
 20
58.7807
 11
-6.74211
 21
58.731
  0
LINE
  8
0
 10
-6.74211
 20
58.731
 11
-6.63251
 21
58.6758
  0
LINE
  8
0
 10
-22.0277
 20
41.2921
 11
-21.9575
 21
41.2426
  0
LINE
  8
0
 10
-21.9575
 20
41.2426
 11
-21.8898
 21
41.1898
  0
LINE
  8
0
 10
-21.8898
 20
41.1898
 11
-21.8248
 21
41.1337
  0
LINE
  8
0
 10
-21.8248
 20
41.1337
 11
-21.7626
 21
41.0744
  0
LINE
  8
0
 10
-21.7626
 20
41.0744
 11
-21.7033
 21
41.0122
  0
LINE
  8
0
 10
-21.7033
 20
41.0122
 11
-21.6472
 21
40.9472
  0
LINE
  8
0
 10
-21.6472
 20
40.9472
 11
-21.5944
 21
40.8795
  0
LINE
  8
0
 10
-21.5944
 20
40.8795
 11
-21.5449
 21
40.8092
  0
LINE
  8
0
 10
-21.5449
 20
40.8092
 11
-21.499
 21
40.7367
  0
LINE
  8
0
 10
-21.499
 20
40.7367
 11
-21.4566
 21
40.6619
  0
LINE
  8
0
 10
-21.4566
 20
40.6619
 11
-21.418
 21
40.5852
  0
LINE
  8
0
 10
-21.418
 20
40.5852
 11
-21.3832
 21
40.5067
  0
LINE
  8
0
 10
-21.3832
 20
40.5067
 11
-21.3523
 21
40.4265
  0
LINE
  8
0
 10
-21.3523
 20
40.4265
 11
-21.3253
 21
40.345
  0
LINE
  8
0
 10
-21.3253
 20
40.345
 11
-21.3024
 21
40.2622
  0
LINE
  8
0
 10
-21.3024
 20
40.2622
 11
-21.2836
 21
40.1784
  0
LINE
  8
0
 10
-21.2836
 20
40.1784
 11
-21.2689
 21
40.0938
  0
LINE
  8
0
 10
-21.2689
 20
40.0938
 11
-21.2584
 21
40.0085
  0
LINE
  8
0
 10
-21.2584
 20
40.0085
 11
-21.2521
 21
39.9229
  0
LINE
  8
0
 10
-21.2521
 20
39.9229
 11
-21.25
 21
39.837
  0
LINE
  8
0
 10
-21.25
 20
39.837
 11
-21.2521
 21
39.7511
  0
LINE
  8
0
 10
-21.2521
 20
39.7511
 11
-21.2584
 21
39.6655
  0
LINE
  8
0
 10
-21.2584
 20
39.6655
 11
-21.2689
 21
39.5802
  0
LINE
  8
0
 10
-21.2689
 20
39.5802
 11
-21.2836
 21
39.4956
  0
LINE
  8
0
 10
-21.2836
 20
39.4956
 11
-21.3024
 21
39.4118
  0
LINE
  8
0
 10
-21.3024
 20
39.4118
 11
-21.3253
 21
39.329
  0
LINE
  8
0
 10
-21.3253
 20
39.329
 11
-21.3523
 21
39.2474
  0
LINE
  8
0
 10
-21.3523
 20
39.2474
 11
-21.3832
 21
39.1673
  0
LINE
  8
0
 10
-21.3832
 20
39.1673
 11
-21.418
 21
39.0888
  0
LINE
  8
0
 10
-21.418
 20
39.0888
 11
-21.4566
 21
39.0121
  0
LINE
  8
0
 10
-21.4566
 20
39.0121
 11
-21.499
 21
38.9373
  0
LINE
  8
0
 10
-21.499
 20
38.9373
 11
-21.5449
 21
38.8647
  0
LINE
  8
0
 10
-21.5449
 20
38.8647
 11
-21.5944
 21
38.7945
  0
LINE
  8
0
 10
-21.5944
 20
38.7945
 11
-21.6472
 21
38.7268
  0
LINE
  8
0
 10
-21.6472
 20
38.7268
 11
-21.7033
 21
38.6618
  0
LINE
  8
0
 10
-21.7033
 20
38.6618
 11
-21.7626
 21
38.5996
  0
LINE
  8
0
 10
-21.7626
 20
38.5996
 11
-21.8248
 21
38.5403
  0
LINE
  8
0
 10
-21.8248
 20
38.5403
 11
-21.8898
 21
38.4842
  0
LINE
  8
0
 10
-21.8898
 20
38.4842
 11
-21.9575
 21
38.4314
  0
LINE
  8
0
 10
-21.9575
 20
38.4314
 11
-22.0277
 21
38.3819
  0
LINE
  8
0
 10
-22.0277
 20
38.3819
 11
-22.1003
 21
38.336
  0
LINE
  8
0
 10
-22.1003
 20
38.336
 11
-22.175
 21
38.2936
  0
LINE
  8
0
 10
-22.175
 20
38.2936
 11
-22.2518
 21
38.255
  0
LINE
  8
0
 10
-22.2518
 20
38.255
 11
-22.3303
 21
38.2202
  0
LINE
  8
0
 10
-22.3303
 20
38.2202
 11
-22.4104
 21
38.1893
  0
LINE
  8
0
 10
-22.4104
 20
38.1893
 11
-22.492
 21
38.1624
  0
LINE
  8
0
 10
-22.492
 20
38.1624
 11
-22.5748
 21
38.1394
  0
LINE
  8
0
 10
-22.5748
 20
38.1394
 11
-22.6586
 21
38.1206
  0
LINE
  8
0
 10
-22.6586
 20
38.1206
 11
-22.7432
 21
38.1059
  0
LINE
  8
0
 10
-22.7432
 20
38.1059
 11
-22.8285
 21
38.0954
  0
LINE
  8
0
 10
-22.8285
 20
38.0954
 11
-22.9141
 21
38.0891
  0
LINE
  8
0
 10
-22.9141
 20
38.0891
 11
-23
 21
38.087
  0
LINE
  8
0
 10
-23
 20
38.087
 11
-23.0859
 21
38.0891
  0
LINE
  8
0
 10
-23.0859
 20
38.0891
 11
-23.1715
 21
38.0954
  0
LINE
  8
0
 10
-23.1715
 20
38.0954
 11
-23.2568
 21
38.1059
  0
LINE
  8
0
 10
-23.2568
 20
38.1059
 11
-23.3414
 21
38.1206
  0
LINE
  8
0
 10
-23.3414
 20
38.1206
 11
-23.4252
 21
38.1394
  0
LINE
  8
0
 10
-23.4252
 20
38.1394
 11
-23.508
 21
38.1624
  0
LINE
  8
0
 10
-23.508
 20
38.1624
 11
-23.5896
 21
38.1893
  0
LINE
  8
0
 10
-23.5896
 20
38.1893
 11
-23.6697
 21
38.2202
  0
LINE
  8
0
 10
-23.6697
 20
38.2202
 11
-23.7482
 21
38.255
  0
LINE
  8
0
 10
-23.7482
 20
38.255
 11
-23.8249
 21
38.2936
  0
LINE
  8
0
 10
-23.8249
 20
38.2936
 11
-23.8997
 21
38.336
  0
LINE
  8
0
 10
-23.8997
 20
38.336
 11
-23.9722
 21
38.3819
  0
LINE
  8
0
 10
-23.9722
 20
38.3819
 11
-24.0425
 21
38.4314
  0
LINE
  8
0
 10
-24.0425
 20
38.4314
 11
-24.1102
 21
38.4842
  0
LINE
  8
0
 10
-24.1102
 20
38.4842
 11
-24.1752
 21
38.5403
  0
LINE
  8
0
 10
-24.1752
 20
38.5403
 11
-24.2374
 21
38.5996
  0
LINE
  8
0
 10
-24.2374
 20
38.5996
 11
-24.2967
 21
38.6618
  0
LINE
  8
0
 10
-24.2967
 20
38.6618
 11
-24.3528
 21
38.7268
  0
LINE
  8
0
 10
-24.3528
 20
38.7268
 11
-24.4056
 21
38.7945
  0
LINE
  8
0
 10
-24.4056
 20
38.7945
 11
-24.4551
 21
38.8647
  0
LINE
  8
0
 10
-24.4551
 20
38.8647
 11
-24.501
 21
38.9373
  0
LINE
  8
0
 10
-24.501
 20
38.9373
 11
-24.5434
 21
39.0121
  0
LINE
  8
0
 10
-24.5434
 20
39.0121
 11
-24.582
 21
39.0888
  0
LINE
  8
0
 10
-24.582
 20
39.0888
 11
-24.6168
 21
39.1673
  0
LINE
  8
0
 10
-24.6168
 20
39.1673
 11
-24.6477
 21
39.2474
  0
LINE
  8
0
 10
-24.6477
 20
39.2474
 11
-24.6746
 21
39.329
  0
LINE
  8
0
 10
-24.6746
 20
39.329
 11
-24.6976
 21
39.4118
  0
LINE
  8
0
 10
-24.6976
 20
39.4118
 11
-24.7164
 21
39.4956
  0
LINE
  8
0
 10
-24.7164
 20
39.4956
 11
-24.731
 21
39.5802
  0
LINE
  8
0
 10
-24.731
 20
39.5802
 11
-24.7416
 21
39.6655
  0
LINE
  8
0
 10
-24.7416
 20
39.6655
 11
-24.7479
 21
39.7511
  0
LINE
  8
0
 10
-24.7479
 20
39.7511
 11
-24.75
 21
39.837
  0
LINE
  8
0
 10
-24.75
 20
39.837
 11
-24.7479
 21
39.9229
  0
LINE
  8
0
 10
-24.7479
 20
39.9229
 11
-24.7416
 21
40.0085
  0
LINE
  8
0
 10
-24.7416
 20
40.0085
 11
-24.731
 21
40.0938
  0
LINE
  8
0
 10
-24.731
 20
40.0938
 11
-24.7164
 21
40.1784
  0
LINE
  8
0
 10
-24.7164
 20
40.1784
 11
-24.6976
 21
40.2622
  0
LINE
  8
0
 10
-24.6976
 20
40.2622
 11
-24.6746
 21
40.345
  0
LINE
  8
0
 10
-24.6746
 20
40.345
 11
-24.6477
 21
40.4265
  0
LINE
  8
0
 10
-24.6477
 20
40.4265
 11
-24.6168
 21
40.5067
  0
LINE
  8
0
 10
-24.6168
 20
40.5067
 11
-24.582
 21
40.5852
  0
LINE
  8
0
 10
-24.582
 20
40.5852
 11
-24.5434
 21
40.6619
  0
LINE
  8
0
 10
-24.5434
 20
40.6619
 11
-24.501
 21
40.7367
  0
LINE
  8
0
 10
-24.501
 20
40.7367
 11
-24.4551
 21
40.8092
  0
LINE
  8
0
 10
-24.4551
 20
40.8092
 11
-24.4056
 21
40.8795
  0
LINE
  8
0
 10
-24.4056
 20
40.8795
 11
-24.3528
 21
40.9472
  0
LINE
  8
0
 10
-24.3528
 20
40.9472
 11
-24.2967
 21
41.0122
  0
LINE
  8
0
 10
-24.2967
 20
41.0122
 11
-24.2374
 21
41.0744
  0
LINE
  8
0
 10
-24.2374
 20
41.0744
 11
-24.1752
 21
41.1337
  0
LINE
  8
0
 10
-24.1752
 20
41.1337
 11
-24.1102
 21
41.1898
  0
LINE
  8
0
 10
-24.1102
 20
41.1898
 11
-24.0425
 21
41.2426
  0
LINE
  8
0
 10
-24.0425
 20
41.2426
 11
-23.9722
 21
41.2921
  0
LINE
  8
0
 10
-23.9722
 20
41.2921
 11
-23.8997
 21
41.338
  0
LINE
  8
0
 10
-23.8997
 20
41.338
 11
-23.8249
 21
41.3804
  0
LINE
  8
0
 10
-23.8249
 20
41.3804
 11
-23.7482
 21
41.419
  0
LINE
  8
0
 10
-23.7482
 20
41.419
 11
-23.6697
 21
41.4538
  0
LINE
  8
0
 10
-23.6697
 20
41.4538
 11
-23.5896
 21
41.4847
  0
LINE
  8
0
 10
-23.5896
 20
41.4847
 11
-23.508
 21
41.5116
  0
LINE
  8
0
 10
-23.508
 20
41.5116
 11
-23.4252
 21
41.5345
  0
LINE
  8
0
 10
-23.4252
 20
41.5345
 11
-23.3414
 21
41.5534
  0
LINE
  8
0
 10
-23.3414
 20
41.5534
 11
-23.2568
 21
41.5681
  0
LINE
  8
0
 10
-23.2568
 20
41.5681
 11
-23.1715
 21
41.5786
  0
LINE
  8
0
 10
-23.1715
 20
41.5786
 11
-23.0859
 21
41.5849
  0
LINE
  8
0
 10
-23.0859
 20
41.5849
 11
-23
 21
41.587
  0
LINE
  8
0
 10
-23
 20
41.587
 11
-22.9141
 21
41.5849
  0
LINE
  8
0
 10
-22.9141
 20
41.5849
 11
-22.8285
 21
41.5786
  0
LINE
  8
0
 10
-22.8285
 20
41.5786
 11
-22.7432
 21
41.5681
  0
LINE
  8
0
 10
-22.7432
 20
41.5681
 11
-22.6586
 21
41.5534
  0
LINE
  8
0
 10
-22.6586
 20
41.5534
 11
-22.5748
 21
41.5345
  0
LINE
  8
0
 10
-22.5748
 20
41.5345
 11
-22.492
 21
41.5116
  0
LINE
  8
0
 10
-22.492
 20
41.5116
 11
-22.4104
 21
41.4847
  0
LINE
  8
0
 10
-22.4104
 20
41.4847
 11
-22.3303
 21
41.4538
  0
LINE
  8
0
 10
-22.3303
 20
41.4538
 11
-22.2518
 21
41.419
  0
LINE
  8
0
 10
-22.2518
 20
41.419
 11
-22.175
 21
41.3804
  0
LINE
  8
0
 10
-22.175
 20
41.3804
 11
-22.1003
 21
41.338
  0
LINE
  8
0
 10
-22.1003
 20
41.338
 11
-22.0277
 21
41.2921
  0
LINE
  8
0
 10
-44.8677
 20
1.3345
 11
-44.8036
 21
1.27734
  0
LINE
  8
0
 10
-44.8036
 20
1.27734
 11
-44.7423
 21
1.2171
  0
LINE
  8
0
 10
-44.7423
 20
1.2171
 11
-44.6841
 21
1.15393
  0
LINE
  8
0
 10
-44.6841
 20
1.15393
 11
-44.6291
 21
1.08798
  0
LINE
  8
0
 10
-44.6291
 20
1.08798
 11
-44.5774
 21
1.01941
  0
LINE
  8
0
 10
-44.5774
 20
1.01941
 11
-44.5291
 21
0.94838
  0
LINE
  8
0
 10
-44.5291
 20
0.94838
 11
-44.4843
 21
0.875076
  0
LINE
  8
0
 10
-44.4843
 20
0.875076
 11
-44.4432
 21
0.799652
  0
LINE
  8
0
 10
-44.4432
 20
0.799652
 11
-44.4058
 21
0.722321
  0
LINE
  8
0
 10
-44.4058
 20
0.722321
 11
-44.3723
 21
0.643234
  0
LINE
  8
0
 10
-44.3723
 20
0.643234
 11
-44.3427
 21
0.562592
  0
LINE
  8
0
 10
-44.3427
 20
0.562592
 11
-44.3171
 21
0.480606
  0
LINE
  8
0
 10
-44.3171
 20
0.480606
 11
-44.2956
 21
0.397461
  0
LINE
  8
0
 10
-44.2956
 20
0.397461
 11
-44.2781
 21
0.313354
  0
LINE
  8
0
 10
-44.2781
 20
0.313354
 11
-44.2648
 21
0.2285
  0
LINE
  8
0
 10
-44.2648
 20
0.2285
 11
-44.2557
 21
0.143082
  0
LINE
  8
0
 10
-44.2557
 20
0.143082
 11
-44.2508
 21
0.0573425
  0
LINE
  8
0
 10
-44.2508
 20
0.0573425
 11
-44.2501
 21
-0.0285339
  0
LINE
  8
0
 10
-44.2501
 20
-0.0285339
 11
-44.2536
 21
-0.114365
  0
LINE
  8
0
 10
-44.2536
 20
-0.114365
 11
-44.2613
 21
-0.199905
  0
LINE
  8
0
 10
-44.2613
 20
-0.199905
 11
-44.2732
 21
-0.284973
  0
LINE
  8
0
 10
-44.2732
 20
-0.284973
 11
-44.2893
 21
-0.369354
  0
LINE
  8
0
 10
-44.2893
 20
-0.369354
 11
-44.3095
 21
-0.452835
  0
LINE
  8
0
 10
-44.3095
 20
-0.452835
 11
-44.3337
 21
-0.535233
  0
LINE
  8
0
 10
-44.3337
 20
-0.535233
 11
-44.362
 21
-0.616348
  0
LINE
  8
0
 10
-44.362
 20
-0.616348
 11
-44.3942
 21
-0.695969
  0
LINE
  8
0
 10
-44.3942
 20
-0.695969
 11
-44.4303
 21
-0.773911
  0
LINE
  8
0
 10
-44.4303
 20
-0.773911
 11
-44.4702
 21
-0.849991
  0
LINE
  8
0
 10
-44.4702
 20
-0.849991
 11
-44.5137
 21
-0.924026
  0
LINE
  8
0
 10
-44.5137
 20
-0.924026
 11
-44.5609
 21
-0.995834
  0
LINE
  8
0
 10
-44.5609
 20
-0.995834
 11
-44.6115
 21
-1.06525
  0
LINE
  8
0
 10
-44.6115
 20
-1.06525
 11
-44.6654
 21
-1.13208
  0
LINE
  8
0
 10
-44.6654
 20
-1.13208
 11
-44.7226
 21
-1.1962
  0
LINE
  8
0
 10
-44.7226
 20
-1.1962
 11
-44.7828
 21
-1.25743
  0
LINE
  8
0
 10
-44.7828
 20
-1.25743
 11
-44.846
 21
-1.31563
  0
LINE
  8
0
 10
-44.846
 20
-1.31563
 11
-44.9119
 21
-1.37067
  0
LINE
  8
0
 10
-44.9119
 20
-1.37067
 11
-44.9805
 21
-1.42239
  0
LINE
  8
0
 10
-44.9805
 20
-1.42239
 11
-45.0515
 21
-1.47069
  0
LINE
  8
0
 10
-45.0515
 20
-1.47069
 11
-45.1248
 21
-1.51546
  0
LINE
  8
0
 10
-45.1248
 20
-1.51546
 11
-45.2003
 21
-1.55656
  0
LINE
  8
0
 10
-45.2003
 20
-1.55656
 11
-45.2776
 21
-1.59392
  0
LINE
  8
0
 10
-45.2776
 20
-1.59392
 11
-45.3567
 21
-1.62744
  0
LINE
  8
0
 10
-45.3567
 20
-1.62744
 11
-45.4373
 21
-1.65704
  0
LINE
  8
0
 10
-45.4373
 20
-1.65704
 11
-45.5193
 21
-1.68265
  0
LINE
  8
0
 10
-45.5193
 20
-1.68265
 11
-45.6025
 21
-1.70419
  0
LINE
  8
0
 10
-45.6025
 20
-1.70419
 11
-45.6866
 21
-1.72163
  0
LINE
  8
0
 10
-45.6866
 20
-1.72163
 11
-45.7714
 21
-1.73494
  0
LINE
  8
0
 10
-45.7714
 20
-1.73494
 11
-45.8568
 21
-1.74405
  0
LINE
  8
0
 10
-45.8568
 20
-1.74405
 11
-45.9426
 21
-1.74898
  0
LINE
  8
0
 10
-45.9426
 20
-1.74898
 11
-46.0285
 21
-1.74968
  0
LINE
  8
0
 10
-46.0285
 20
-1.74968
 11
-46.1143
 21
-1.74615
  0
LINE
  8
0
 10
-46.1143
 20
-1.74615
 11
-46.1998
 21
-1.73845
  0
LINE
  8
0
 10
-46.1998
 20
-1.73845
 11
-46.2849
 21
-1.72653
  0
LINE
  8
0
 10
-46.2849
 20
-1.72653
 11
-46.3693
 21
-1.71046
  0
LINE
  8
0
 10
-46.3693
 20
-1.71046
 11
-46.4528
 21
-1.69028
  0
LINE
  8
0
 10
-46.4528
 20
-1.69028
 11
-46.5352
 21
-1.66602
  0
LINE
  8
0
 10
-46.5352
 20
-1.66602
 11
-46.6163
 21
-1.63774
  0
LINE
  8
0
 10
-46.6163
 20
-1.63774
 11
-46.6959
 21
-1.60553
  0
LINE
  8
0
 10
-46.6959
 20
-1.60553
 11
-46.7738
 21
-1.56944
  0
LINE
  8
0
 10
-46.7738
 20
-1.56944
 11
-46.8499
 21
-1.52957
  0
LINE
  8
0
 10
-46.8499
 20
-1.52957
 11
-46.924
 21
-1.48601
  0
LINE
  8
0
 10
-46.924
 20
-1.48601
 11
-46.9958
 21
-1.43887
  0
LINE
  8
0
 10
-46.9958
 20
-1.43887
 11
-47.0652
 21
-1.38828
  0
LINE
  8
0
 10
-47.0652
 20
-1.38828
 11
-47.132
 21
-1.33434
  0
LINE
  8
0
 10
-47.132
 20
-1.33434
 11
-47.1961
 21
-1.27718
  0
LINE
  8
0
 10
-47.1961
 20
-1.27718
 11
-47.2574
 21
-1.21693
  0
LINE
  8
0
 10
-47.2574
 20
-1.21693
 11
-47.3156
 21
-1.15376
  0
LINE
  8
0
 10
-47.3156
 20
-1.15376
 11
-47.3706
 21
-1.08781
  0
LINE
  8
0
 10
-47.3706
 20
-1.08781
 11
-47.4223
 21
-1.01924
  0
LINE
  8
0
 10
-47.4223
 20
-1.01924
 11
-47.4706
 21
-0.948212
  0
LINE
  8
0
 10
-47.4706
 20
-0.948212
 11
-47.5154
 21
-0.874908
  0
LINE
  8
0
 10
-47.5154
 20
-0.874908
 11
-47.5565
 21
-0.799484
  0
LINE
  8
0
 10
-47.5565
 20
-0.799484
 11
-47.5939
 21
-0.722153
  0
LINE
  8
0
 10
-47.5939
 20
-0.722153
 11
-47.6274
 21
-0.643066
  0
LINE
  8
0
 10
-47.6274
 20
-0.643066
 11
-47.657
 21
-0.562424
  0
LINE
  8
0
 10
-47.657
 20
-0.562424
 11
-47.6826
 21
-0.480438
  0
LINE
  8
0
 10
-47.6826
 20
-0.480438
 11
-47.7041
 21
-0.397293
  0
LINE
  8
0
 10
-47.7041
 20
-0.397293
 11
-47.7216
 21
-0.313187
  0
LINE
  8
0
 10
-47.7216
 20
-0.313187
 11
-47.7349
 21
-0.228333
  0
LINE
  8
0
 10
-47.7349
 20
-0.228333
 11
-47.744
 21
-0.142914
  0
LINE
  8
0
 10
-47.744
 20
-0.142914
 11
-47.7489
 21
-0.0571594
  0
LINE
  8
0
 10
-47.7489
 20
-0.0571594
 11
-47.7496
 21
0.028717
  0
LINE
  8
0
 10
-47.7496
 20
0.028717
 11
-47.7461
 21
0.114532
  0
LINE
  8
0
 10
-47.7461
 20
0.114532
 11
-47.7384
 21
0.200073
  0
LINE
  8
0
 10
-47.7384
 20
0.200073
 11
-47.7265
 21
0.285141
  0
LINE
  8
0
 10
-47.7265
 20
0.285141
 11
-47.7104
 21
0.369522
  0
LINE
  8
0
 10
-47.7104
 20
0.369522
 11
-47.6902
 21
0.453003
  0
LINE
  8
0
 10
-47.6902
 20
0.453003
 11
-47.666
 21
0.5354
  0
LINE
  8
0
 10
-47.666
 20
0.5354
 11
-47.6377
 21
0.616516
  0
LINE
  8
0
 10
-47.6377
 20
0.616516
 11
-47.6055
 21
0.696136
  0
LINE
  8
0
 10
-47.6055
 20
0.696136
 11
-47.5694
 21
0.774078
  0
LINE
  8
0
 10
-47.5694
 20
0.774078
 11
-47.5295
 21
0.850159
  0
LINE
  8
0
 10
-47.5295
 20
0.850159
 11
-47.4859
 21
0.924194
  0
LINE
  8
0
 10
-47.4859
 20
0.924194
 11
-47.4388
 21
0.996002
  0
LINE
  8
0
 10
-47.4388
 20
0.996002
 11
-47.3882
 21
1.06541
  0
LINE
  8
0
 10
-47.3882
 20
1.06541
 11
-47.3343
 21
1.13225
  0
LINE
  8
0
 10
-47.3343
 20
1.13225
 11
-47.2771
 21
1.19637
  0
LINE
  8
0
 10
-47.2771
 20
1.19637
 11
-47.2169
 21
1.2576
  0
LINE
  8
0
 10
-47.2169
 20
1.2576
 11
-47.1537
 21
1.3158
  0
LINE
  8
0
 10
-47.1537
 20
1.3158
 11
-47.0878
 21
1.37083
  0
LINE
  8
0
 10
-47.0878
 20
1.37083
 11
-47.0192
 21
1.42256
  0
LINE
  8
0
 10
-47.0192
 20
1.42256
 11
-46.9482
 21
1.47086
  0
LINE
  8
0
 10
-46.9482
 20
1.47086
 11
-46.8748
 21
1.51562
  0
LINE
  8
0
 10
-46.8748
 20
1.51562
 11
-46.7994
 21
1.55673
  0
LINE
  8
0
 10
-46.7994
 20
1.55673
 11
-46.7221
 21
1.59409
  0
LINE
  8
0
 10
-46.7221
 20
1.59409
 11
-46.643
 21
1.62761
  0
LINE
  8
0
 10
-46.643
 20
1.62761
 11
-46.5624
 21
1.65721
  0
LINE
  8
0
 10
-46.5624
 20
1.65721
 11
-46.4804
 21
1.68282
  0
LINE
  8
0
 10
-46.4804
 20
1.68282
 11
-46.3972
 21
1.70436
  0
LINE
  8
0
 10
-46.3972
 20
1.70436
 11
-46.3131
 21
1.7218
  0
LINE
  8
0
 10
-46.3131
 20
1.7218
 11
-46.2283
 21
1.73511
  0
LINE
  8
0
 10
-46.2283
 20
1.73511
 11
-46.1429
 21
1.74422
  0
LINE
  8
0
 10
-46.1429
 20
1.74422
 11
-46.0571
 21
1.74915
  0
LINE
  8
0
 10
-46.0571
 20
1.74915
 11
-45.9712
 21
1.74985
  0
LINE
  8
0
 10
-45.9712
 20
1.74985
 11
-45.8854
 21
1.74632
  0
LINE
  8
0
 10
-45.8854
 20
1.74632
 11
-45.7999
 21
1.73862
  0
LINE
  8
0
 10
-45.7999
 20
1.73862
 11
-45.7148
 21
1.7267
  0
LINE
  8
0
 10
-45.7148
 20
1.7267
 11
-45.6304
 21
1.71063
  0
LINE
  8
0
 10
-45.6304
 20
1.71063
 11
-45.5469
 21
1.69044
  0
LINE
  8
0
 10
-45.5469
 20
1.69044
 11
-45.4645
 21
1.66618
  0
LINE
  8
0
 10
-45.4645
 20
1.66618
 11
-45.3834
 21
1.63791
  0
LINE
  8
0
 10
-45.3834
 20
1.63791
 11
-45.3038
 21
1.6057
  0
LINE
  8
0
 10
-45.3038
 20
1.6057
 11
-45.2258
 21
1.56961
  0
LINE
  8
0
 10
-45.2258
 20
1.56961
 11
-45.1498
 21
1.52974
  0
LINE
  8
0
 10
-45.1498
 20
1.52974
 11
-45.0757
 21
1.48618
  0
LINE
  8
0
 10
-45.0757
 20
1.48618
 11
-45.0039
 21
1.43904
  0
LINE
  8
0
 10
-45.0039
 20
1.43904
 11
-44.9345
 21
1.38844
  0
LINE
  8
0
 10
-44.9345
 20
1.38844
 11
-44.8677
 21
1.3345
  0
LINE
  8
0
 10
-22.1498
 20
-38.3074
 11
-22.0757
 21
-38.351
  0
LINE
  8
0
 10
-22.0757
 20
-38.351
 11
-22.0039
 21
-38.3981
  0
LINE
  8
0
 10
-22.0039
 20
-38.3981
 11
-21.9345
 21
-38.4487
  0
LINE
  8
0
 10
-21.9345
 20
-38.4487
 11
-21.8677
 21
-38.5027
  0
LINE
  8
0
 10
-21.8677
 20
-38.5027
 11
-21.8036
 21
-38.5598
  0
LINE
  8
0
 10
-21.8036
 20
-38.5598
 11
-21.7423
 21
-38.6201
  0
LINE
  8
0
 10
-21.7423
 20
-38.6201
 11
-21.6841
 21
-38.6832
  0
LINE
  8
0
 10
-21.6841
 20
-38.6832
 11
-21.6291
 21
-38.7492
  0
LINE
  8
0
 10
-21.6291
 20
-38.7492
 11
-21.5774
 21
-38.8177
  0
LINE
  8
0
 10
-21.5774
 20
-38.8177
 11
-21.5291
 21
-38.8888
  0
LINE
  8
0
 10
-21.5291
 20
-38.8888
 11
-21.4843
 21
-38.9621
  0
LINE
  8
0
 10
-21.4843
 20
-38.9621
 11
-21.4432
 21
-39.0375
  0
LINE
  8
0
 10
-21.4432
 20
-39.0375
 11
-21.4058
 21
-39.1148
  0
LINE
  8
0
 10
-21.4058
 20
-39.1148
 11
-21.3723
 21
-39.1939
  0
LINE
  8
0
 10
-21.3723
 20
-39.1939
 11
-21.3427
 21
-39.2746
  0
LINE
  8
0
 10
-21.3427
 20
-39.2746
 11
-21.3171
 21
-39.3566
  0
LINE
  8
0
 10
-21.3171
 20
-39.3566
 11
-21.2956
 21
-39.4397
  0
LINE
  8
0
 10
-21.2956
 20
-39.4397
 11
-21.2781
 21
-39.5238
  0
LINE
  8
0
 10
-21.2781
 20
-39.5238
 11
-21.2648
 21
-39.6087
  0
LINE
  8
0
 10
-21.2648
 20
-39.6087
 11
-21.2557
 21
-39.6941
  0
LINE
  8
0
 10
-21.2557
 20
-39.6941
 11
-21.2508
 21
-39.7798
  0
LINE
  8
0
 10
-21.2508
 20
-39.7798
 11
-21.2501
 21
-39.8657
  0
LINE
  8
0
 10
-21.2501
 20
-39.8657
 11
-21.2536
 21
-39.9515
  0
LINE
  8
0
 10
-21.2536
 20
-39.9515
 11
-21.2613
 21
-40.0371
  0
LINE
  8
0
 10
-21.2613
 20
-40.0371
 11
-21.2732
 21
-40.1221
  0
LINE
  8
0
 10
-21.2732
 20
-40.1221
 11
-21.2893
 21
-40.2065
  0
LINE
  8
0
 10
-21.2893
 20
-40.2065
 11
-21.3095
 21
-40.29
  0
LINE
  8
0
 10
-21.3095
 20
-40.29
 11
-21.3337
 21
-40.3724
  0
LINE
  8
0
 10
-21.3337
 20
-40.3724
 11
-21.362
 21
-40.4535
  0
LINE
  8
0
 10
-21.362
 20
-40.4535
 11
-21.3942
 21
-40.5331
  0
LINE
  8
0
 10
-21.3942
 20
-40.5331
 11
-21.4303
 21
-40.6111
  0
LINE
  8
0
 10
-21.4303
 20
-40.6111
 11
-21.4702
 21
-40.6872
  0
LINE
  8
0
 10
-21.4702
 20
-40.6872
 11
-21.5137
 21
-40.7612
  0
LINE
  8
0
 10
-21.5137
 20
-40.7612
 11
-21.5609
 21
-40.833
  0
LINE
  8
0
 10
-21.5609
 20
-40.833
 11
-21.6115
 21
-40.9024
  0
LINE
  8
0
 10
-21.6115
 20
-40.9024
 11
-21.6654
 21
-40.9693
  0
LINE
  8
0
 10
-21.6654
 20
-40.9693
 11
-21.7226
 21
-41.0334
  0
LINE
  8
0
 10
-21.7226
 20
-41.0334
 11
-21.7828
 21
-41.0946
  0
LINE
  8
0
 10
-21.7828
 20
-41.0946
 11
-21.846
 21
-41.1528
  0
LINE
  8
0
 10
-21.846
 20
-41.1528
 11
-21.9119
 21
-41.2078
  0
LINE
  8
0
 10
-21.9119
 20
-41.2078
 11
-21.9805
 21
-41.2596
  0
LINE
  8
0
 10
-21.9805
 20
-41.2596
 11
-22.0515
 21
-41.3079
  0
LINE
  8
0
 10
-22.0515
 20
-41.3079
 11
-22.1248
 21
-41.3526
  0
LINE
  8
0
 10
-22.1248
 20
-41.3526
 11
-22.2003
 21
-41.3937
  0
LINE
  8
0
 10
-22.2003
 20
-41.3937
 11
-22.2776
 21
-41.4311
  0
LINE
  8
0
 10
-22.2776
 20
-41.4311
 11
-22.3567
 21
-41.4646
  0
LINE
  8
0
 10
-22.3567
 20
-41.4646
 11
-22.4373
 21
-41.4942
  0
LINE
  8
0
 10
-22.4373
 20
-41.4942
 11
-22.5193
 21
-41.5198
  0
LINE
  8
0
 10
-22.5193
 20
-41.5198
 11
-22.6025
 21
-41.5414
  0
LINE
  8
0
 10
-22.6025
 20
-41.5414
 11
-22.6866
 21
-41.5588
  0
LINE
  8
0
 10
-22.6866
 20
-41.5588
 11
-22.7714
 21
-41.5721
  0
LINE
  8
0
 10
-22.7714
 20
-41.5721
 11
-22.8568
 21
-41.5812
  0
LINE
  8
0
 10
-22.8568
 20
-41.5812
 11
-22.9426
 21
-41.5861
  0
LINE
  8
0
 10
-22.9426
 20
-41.5861
 11
-23.0285
 21
-41.5868
  0
LINE
  8
0
 10
-23.0285
 20
-41.5868
 11
-23.1143
 21
-41.5833
  0
LINE
  8
0
 10
-23.1143
 20
-41.5833
 11
-23.1998
 21
-41.5756
  0
LINE
  8
0
 10
-23.1998
 20
-41.5756
 11
-23.2849
 21
-41.5637
  0
LINE
  8
0
 10
-23.2849
 20
-41.5637
 11
-23.3693
 21
-41.5476
  0
LINE
  8
0
 10
-23.3693
 20
-41.5476
 11
-23.4528
 21
-41.5275
  0
LINE
  8
0
 10
-23.4528
 20
-41.5275
 11
-23.5352
 21
-41.5032
  0
LINE
  8
0
 10
-23.5352
 20
-41.5032
 11
-23.6163
 21
-41.4749
  0
LINE
  8
0
 10
-23.6163
 20
-41.4749
 11
-23.6959
 21
-41.4427
  0
LINE
  8
0
 10
-23.6959
 20
-41.4427
 11
-23.7738
 21
-41.4066
  0
LINE
  8
0
 10
-23.7738
 20
-41.4066
 11
-23.8499
 21
-41.3667
  0
LINE
  8
0
 10
-23.8499
 20
-41.3667
 11
-23.924
 21
-41.3232
  0
LINE
  8
0
 10
-23.924
 20
-41.3232
 11
-23.9958
 21
-41.276
  0
LINE
  8
0
 10
-23.9958
 20
-41.276
 11
-24.0652
 21
-41.2254
  0
LINE
  8
0
 10
-24.0652
 20
-41.2254
 11
-24.132
 21
-41.1715
  0
LINE
  8
0
 10
-24.132
 20
-41.1715
 11
-24.1961
 21
-41.1143
  0
LINE
  8
0
 10
-24.1961
 20
-41.1143
 11
-24.2574
 21
-41.0541
  0
LINE
  8
0
 10
-24.2574
 20
-41.0541
 11
-24.3156
 21
-40.9909
  0
LINE
  8
0
 10
-24.3156
 20
-40.9909
 11
-24.3706
 21
-40.925
  0
LINE
  8
0
 10
-24.3706
 20
-40.925
 11
-24.4223
 21
-40.8564
  0
LINE
  8
0
 10
-24.4223
 20
-40.8564
 11
-24.4706
 21
-40.7854
  0
LINE
  8
0
 10
-24.4706
 20
-40.7854
 11
-24.5154
 21
-40.7121
  0
LINE
  8
0
 10
-24.5154
 20
-40.7121
 11
-24.5565
 21
-40.6367
  0
LINE
  8
0
 10
-24.5565
 20
-40.6367
 11
-24.5939
 21
-40.5593
  0
LINE
  8
0
 10
-24.5939
 20
-40.5593
 11
-24.6274
 21
-40.4802
  0
LINE
  8
0
 10
-24.6274
 20
-40.4802
 11
-24.657
 21
-40.3996
  0
LINE
  8
0
 10
-24.657
 20
-40.3996
 11
-24.6826
 21
-40.3176
  0
LINE
  8
0
 10
-24.6826
 20
-40.3176
 11
-24.7041
 21
-40.2345
  0
LINE
  8
0
 10
-24.7041
 20
-40.2345
 11
-24.7216
 21
-40.1504
  0
LINE
  8
0
 10
-24.7216
 20
-40.1504
 11
-24.7349
 21
-40.0655
  0
LINE
  8
0
 10
-24.7349
 20
-40.0655
 11
-24.744
 21
-39.9801
  0
LINE
  8
0
 10
-24.744
 20
-39.9801
 11
-24.7489
 21
-39.8943
  0
LINE
  8
0
 10
-24.7489
 20
-39.8943
 11
-24.7496
 21
-39.8084
  0
LINE
  8
0
 10
-24.7496
 20
-39.8084
 11
-24.7461
 21
-39.7226
  0
LINE
  8
0
 10
-24.7461
 20
-39.7226
 11
-24.7384
 21
-39.6371
  0
LINE
  8
0
 10
-24.7384
 20
-39.6371
 11
-24.7265
 21
-39.552
  0
LINE
  8
0
 10
-24.7265
 20
-39.552
 11
-24.7104
 21
-39.4676
  0
LINE
  8
0
 10
-24.7104
 20
-39.4676
 11
-24.6902
 21
-39.3841
  0
LINE
  8
0
 10
-24.6902
 20
-39.3841
 11
-24.666
 21
-39.3017
  0
LINE
  8
0
 10
-24.666
 20
-39.3017
 11
-24.6377
 21
-39.2206
  0
LINE
  8
0
 10
-24.6377
 20
-39.2206
 11
-24.6055
 21
-39.141
  0
LINE
  8
0
 10
-24.6055
 20
-39.141
 11
-24.5694
 21
-39.0631
  0
LINE
  8
0
 10
-24.5694
 20
-39.0631
 11
-24.5295
 21
-38.987
  0
LINE
  8
0
 10
-24.5295
 20
-38.987
 11
-24.4859
 21
-38.913
  0
LINE
  8
0
 10
-24.4859
 20
-38.913
 11
-24.4388
 21
-38.8412
  0
LINE
  8
0
 10
-24.4388
 20
-38.8412
 11
-24.3882
 21
-38.7717
  0
LINE
  8
0
 10
-24.3882
 20
-38.7717
 11
-24.3343
 21
-38.7049
  0
LINE
  8
0
 10
-24.3343
 20
-38.7049
 11
-24.2771
 21
-38.6408
  0
LINE
  8
0
 10
-24.2771
 20
-38.6408
 11
-24.2169
 21
-38.5796
  0
LINE
  8
0
 10
-24.2169
 20
-38.5796
 11
-24.1537
 21
-38.5214
  0
LINE
  8
0
 10
-24.1537
 20
-38.5214
 11
-24.0878
 21
-38.4663
  0
LINE
  8
0
 10
-24.0878
 20
-38.4663
 11
-24.0192
 21
-38.4146
  0
LINE
  8
0
 10
-24.0192
 20
-38.4146
 11
-23.9482
 21
-38.3663
  0
LINE
  8
0
 10
-23.9482
 20
-38.3663
 11
-23.8748
 21
-38.3215
  0
LINE
  8
0
 10
-23.8748
 20
-38.3215
 11
-23.7994
 21
-38.2804
  0
LINE
  8
0
 10
-23.7994
 20
-38.2804
 11
-23.7221
 21
-38.2431
  0
LINE
  8
0
 10
-23.7221
 20
-38.2431
 11
-23.643
 21
-38.2095
  0
LINE
  8
0
 10
-23.643
 20
-38.2095
 11
-23.5624
 21
-38.1799
  0
LINE
  8
0
 10
-23.5624
 20
-38.1799
 11
-23.4804
 21
-38.1543
  0
LINE
  8
0
 10
-23.4804
 20
-38.1543
 11
-23.3972
 21
-38.1328
  0
LINE
  8
0
 10
-23.3972
 20
-38.1328
 11
-23.3131
 21
-38.1153
  0
LINE
  8
0
 10
-23.3131
 20
-38.1153
 11
-23.2283
 21
-38.1021
  0
LINE
  8
0
 10
-23.2283
 20
-38.1021
 11
-23.1429
 21
-38.0929
  0
LINE
  8
0
 10
-23.1429
 20
-38.0929
 11
-23.0571
 21
-38.088
  0
LINE
  8
0
 10
-23.0571
 20
-38.088
 11
-22.9712
 21
-38.0873
  0
LINE
  8
0
 10
-22.9712
 20
-38.0873
 11
-22.8854
 21
-38.0908
  0
LINE
  8
0
 10
-22.8854
 20
-38.0908
 11
-22.7999
 21
-38.0985
  0
LINE
  8
0
 10
-22.7999
 20
-38.0985
 11
-22.7148
 21
-38.1105
  0
LINE
  8
0
 10
-22.7148
 20
-38.1105
 11
-22.6304
 21
-38.1265
  0
LINE
  8
0
 10
-22.6304
 20
-38.1265
 11
-22.5469
 21
-38.1467
  0
LINE
  8
0
 10
-22.5469
 20
-38.1467
 11
-22.4645
 21
-38.171
  0
LINE
  8
0
 10
-22.4645
 20
-38.171
 11
-22.3834
 21
-38.1992
  0
LINE
  8
0
 10
-22.3834
 20
-38.1992
 11
-22.3038
 21
-38.2315
  0
LINE
  8
0
 10
-22.3038
 20
-38.2315
 11
-22.2258
 21
-38.2675
  0
LINE
  8
0
 10
-22.2258
 20
-38.2675
 11
-22.1498
 21
-38.3074
  0
LINE
  8
0
 10
-44.1192
 20
-72.6602
 11
-44.0054
 21
-72.7063
  0
LINE
  8
0
 10
-44.0054
 20
-72.7063
 11
-43.8941
 21
-72.7578
  0
LINE
  8
0
 10
-43.8941
 20
-72.7578
 11
-43.7854
 21
-72.8148
  0
LINE
  8
0
 10
-43.7854
 20
-72.8148
 11
-43.6797
 21
-72.877
  0
LINE
  8
0
 10
-43.6797
 20
-72.877
 11
-43.5771
 21
-72.9443
  0
LINE
  8
0
 10
-43.5771
 20
-72.9443
 11
-43.4779
 21
-73.0166
  0
LINE
  8
0
 10
-43.4779
 20
-73.0166
 11
-43.3824
 21
-73.0937
  0
LINE
  8
0
 10
-43.3824
 20
-73.0937
 11
-43.2908
 21
-73.1754
  0
LINE
  8
0
 10
-43.2908
 20
-73.1754
 11
-43.2034
 21
-73.2614
  0
LINE
  8
0
 10
-43.2034
 20
-73.2614
 11
-43.1202
 21
-73.3516
  0
LINE
  8
0
 10
-43.1202
 20
-73.3516
 11
-43.0416
 21
-73.4459
  0
LINE
  8
0
 10
-43.0416
 20
-73.4459
 11
-42.9677
 21
-73.5438
  0
LINE
  8
0
 10
-42.9677
 20
-73.5438
 11
-42.8987
 21
-73.6453
  0
LINE
  8
0
 10
-42.8987
 20
-73.6453
 11
-42.8348
 21
-73.75
  0
LINE
  8
0
 10
-42.8348
 20
-73.75
 11
-42.776
 21
-73.8577
  0
LINE
  8
0
 10
-42.776
 20
-73.8577
 11
-42.7227
 21
-73.9682
  0
LINE
  8
0
 10
-42.7227
 20
-73.9682
 11
-42.6748
 21
-74.0812
  0
LINE
  8
0
 10
-42.6748
 20
-74.0812
 11
-42.6325
 21
-74.1964
  0
LINE
  8
0
 10
-42.6325
 20
-74.1964
 11
-42.5959
 21
-74.3135
  0
LINE
  8
0
 10
-42.5959
 20
-74.3135
 11
-42.5651
 21
-74.4323
  0
LINE
  8
0
 10
-42.5651
 20
-74.4323
 11
-42.5402
 21
-74.5525
  0
LINE
  8
0
 10
-42.5402
 20
-74.5525
 11
-42.5212
 21
-74.6737
  0
LINE
  8
0
 10
-42.5212
 20
-74.6737
 11
-42.5082
 21
-74.7957
  0
LINE
  8
0
 10
-42.5082
 20
-74.7957
 11
-42.5012
 21
-74.9182
  0
LINE
  8
0
 10
-42.5012
 20
-74.9182
 11
-42.5002
 21
-75.0409
  0
LINE
  8
0
 10
-42.5002
 20
-75.0409
 11
-42.5052
 21
-75.1635
  0
LINE
  8
0
 10
-42.5052
 20
-75.1635
 11
-42.5162
 21
-75.2857
  0
LINE
  8
0
 10
-42.5162
 20
-75.2857
 11
-42.5332
 21
-75.4072
  0
LINE
  8
0
 10
-42.5332
 20
-75.4072
 11
-42.5562
 21
-75.5278
  0
LINE
  8
0
 10
-42.5562
 20
-75.5278
 11
-42.585
 21
-75.647
  0
LINE
  8
0
 10
-42.585
 20
-75.647
 11
-42.6197
 21
-75.7648
  0
LINE
  8
0
 10
-42.6197
 20
-75.7648
 11
-42.6601
 21
-75.8806
  0
LINE
  8
0
 10
-42.6601
 20
-75.8806
 11
-42.7061
 21
-75.9944
  0
LINE
  8
0
 10
-42.7061
 20
-75.9944
 11
-42.7576
 21
-76.1057
  0
LINE
  8
0
 10
-42.7576
 20
-76.1057
 11
-42.8146
 21
-76.2144
  0
LINE
  8
0
 10
-42.8146
 20
-76.2144
 11
-42.8768
 21
-76.3202
  0
LINE
  8
0
 10
-42.8768
 20
-76.3202
 11
-42.9442
 21
-76.4228
  0
LINE
  8
0
 10
-42.9442
 20
-76.4228
 11
-43.0164
 21
-76.5219
  0
LINE
  8
0
 10
-43.0164
 20
-76.5219
 11
-43.0935
 21
-76.6174
  0
LINE
  8
0
 10
-43.0935
 20
-76.6174
 11
-43.1752
 21
-76.709
  0
LINE
  8
0
 10
-43.1752
 20
-76.709
 11
-43.2612
 21
-76.7965
  0
LINE
  8
0
 10
-43.2612
 20
-76.7965
 11
-43.3515
 21
-76.8796
  0
LINE
  8
0
 10
-43.3515
 20
-76.8796
 11
-43.4457
 21
-76.9582
  0
LINE
  8
0
 10
-43.4457
 20
-76.9582
 11
-43.5436
 21
-77.0321
  0
LINE
  8
0
 10
-43.5436
 20
-77.0321
 11
-43.6451
 21
-77.1011
  0
LINE
  8
0
 10
-43.6451
 20
-77.1011
 11
-43.7498
 21
-77.1651
  0
LINE
  8
0
 10
-43.7498
 20
-77.1651
 11
-43.8576
 21
-77.2238
  0
LINE
  8
0
 10
-43.8576
 20
-77.2238
 11
-43.968
 21
-77.2772
  0
LINE
  8
0
 10
-43.968
 20
-77.2772
 11
-44.081
 21
-77.325
  0
LINE
  8
0
 10
-44.081
 20
-77.325
 11
-44.1962
 21
-77.3673
  0
LINE
  8
0
 10
-44.1962
 20
-77.3673
 11
-44.3134
 21
-77.4039
  0
LINE
  8
0
 10
-44.3134
 20
-77.4039
 11
-44.4321
 21
-77.4347
  0
LINE
  8
0
 10
-44.4321
 20
-77.4347
 11
-44.5523
 21
-77.4596
  0
LINE
  8
0
 10
-44.5523
 20
-77.4596
 11
-44.6735
 21
-77.4786
  0
LINE
  8
0
 10
-44.6735
 20
-77.4786
 11
-44.7955
 21
-77.4916
  0
LINE
  8
0
 10
-44.7955
 20
-77.4916
 11
-44.918
 21
-77.4987
  0
LINE
  8
0
 10
-44.918
 20
-77.4987
 11
-45.0407
 21
-77.4997
  0
LINE
  8
0
 10
-45.0407
 20
-77.4997
 11
-45.1633
 21
-77.4947
  0
LINE
  8
0
 10
-45.1633
 20
-77.4947
 11
-45.2855
 21
-77.4836
  0
LINE
  8
0
 10
-45.2855
 20
-77.4836
 11
-45.4071
 21
-77.4666
  0
LINE
  8
0
 10
-45.4071
 20
-77.4666
 11
-45.5276
 21
-77.4437
  0
LINE
  8
0
 10
-45.5276
 20
-77.4437
 11
-45.6469
 21
-77.4148
  0
LINE
  8
0
 10
-45.6469
 20
-77.4148
 11
-45.7646
 21
-77.3802
  0
LINE
  8
0
 10
-45.7646
 20
-77.3802
 11
-45.8804
 21
-77.3398
  0
LINE
  8
0
 10
-45.8804
 20
-77.3398
 11
-45.9942
 21
-77.2937
  0
LINE
  8
0
 10
-45.9942
 20
-77.2937
 11
-46.1055
 21
-77.2422
  0
LINE
  8
0
 10
-46.1055
 20
-77.2422
 11
-46.2142
 21
-77.1852
  0
LINE
  8
0
 10
-46.2142
 20
-77.1852
 11
-46.32
 21
-77.123
  0
LINE
  8
0
 10
-46.32
 20
-77.123
 11
-46.4226
 21
-77.0557
  0
LINE
  8
0
 10
-46.4226
 20
-77.0557
 11
-46.5217
 21
-76.9834
  0
LINE
  8
0
 10
-46.5217
 20
-76.9834
 11
-46.6172
 21
-76.9063
  0
LINE
  8
0
 10
-46.6172
 20
-76.9063
 11
-46.7088
 21
-76.8247
  0
LINE
  8
0
 10
-46.7088
 20
-76.8247
 11
-46.7963
 21
-76.7386
  0
LINE
  8
0
 10
-46.7963
 20
-76.7386
 11
-46.8794
 21
-76.6484
  0
LINE
  8
0
 10
-46.8794
 20
-76.6484
 11
-46.958
 21
-76.5542
  0
LINE
  8
0
 10
-46.958
 20
-76.5542
 11
-47.0319
 21
-76.4562
  0
LINE
  8
0
 10
-47.0319
 20
-76.4562
 11
-47.1009
 21
-76.3547
  0
LINE
  8
0
 10
-47.1009
 20
-76.3547
 11
-47.1649
 21
-76.25
  0
LINE
  8
0
 10
-47.1649
 20
-76.25
 11
-47.2236
 21
-76.1423
  0
LINE
  8
0
 10
-47.2236
 20
-76.1423
 11
-47.277
 21
-76.0318
  0
LINE
  8
0
 10
-47.277
 20
-76.0318
 11
-47.3249
 21
-75.9188
  0
LINE
  8
0
 10
-47.3249
 20
-75.9188
 11
-47.3671
 21
-75.8036
  0
LINE
  8
0
 10
-47.3671
 20
-75.8036
 11
-47.4037
 21
-75.6865
  0
LINE
  8
0
 10
-47.4037
 20
-75.6865
 11
-47.4345
 21
-75.5677
  0
LINE
  8
0
 10
-47.4345
 20
-75.5677
 11
-47.4594
 21
-75.4476
  0
LINE
  8
0
 10
-47.4594
 20
-75.4476
 11
-47.4784
 21
-75.3263
  0
LINE
  8
0
 10
-47.4784
 20
-75.3263
 11
-47.4915
 21
-75.2043
  0
LINE
  8
0
 10
-47.4915
 20
-75.2043
 11
-47.4985
 21
-75.0818
  0
LINE
  8
0
 10
-47.4985
 20
-75.0818
 11
-47.4995
 21
-74.9591
  0
LINE
  8
0
 10
-47.4995
 20
-74.9591
 11
-47.4945
 21
-74.8365
  0
LINE
  8
0
 10
-47.4945
 20
-74.8365
 11
-47.4834
 21
-74.7143
  0
LINE
  8
0
 10
-47.4834
 20
-74.7143
 11
-47.4664
 21
-74.5928
  0
LINE
  8
0
 10
-47.4664
 20
-74.5928
 11
-47.4435
 21
-74.4722
  0
LINE
  8
0
 10
-47.4435
 20
-74.4722
 11
-47.4146
 21
-74.353
  0
LINE
  8
0
 10
-47.4146
 20
-74.353
 11
-47.38
 21
-74.2352
  0
LINE
  8
0
 10
-47.38
 20
-74.2352
 11
-47.3396
 21
-74.1194
  0
LINE
  8
0
 10
-47.3396
 20
-74.1194
 11
-47.2936
 21
-74.0056
  0
LINE
  8
0
 10
-47.2936
 20
-74.0056
 11
-47.242
 21
-73.8943
  0
LINE
  8
0
 10
-47.242
 20
-73.8943
 11
-47.185
 21
-73.7856
  0
LINE
  8
0
 10
-47.185
 20
-73.7856
 11
-47.1228
 21
-73.6798
  0
LINE
  8
0
 10
-47.1228
 20
-73.6798
 11
-47.0555
 21
-73.5773
  0
LINE
  8
0
 10
-47.0555
 20
-73.5773
 11
-46.9832
 21
-73.4781
  0
LINE
  8
0
 10
-46.9832
 20
-73.4781
 11
-46.9061
 21
-73.3826
  0
LINE
  8
0
 10
-46.9061
 20
-73.3826
 11
-46.8245
 21
-73.291
  0
LINE
  8
0
 10
-46.8245
 20
-73.291
 11
-46.7384
 21
-73.2036
  0
LINE
  8
0
 10
-46.7384
 20
-73.2036
 11
-46.6482
 21
-73.1204
  0
LINE
  8
0
 10
-46.6482
 20
-73.1204
 11
-46.554
 21
-73.0418
  0
LINE
  8
0
 10
-46.554
 20
-73.0418
 11
-46.456
 21
-72.9679
  0
LINE
  8
0
 10
-46.456
 20
-72.9679
 11
-46.3546
 21
-72.8989
  0
LINE
  8
0
 10
-46.3546
 20
-72.8989
 11
-46.2498
 21
-72.8349
  0
LINE
  8
0
 10
-46.2498
 20
-72.8349
 11
-46.1421
 21
-72.7762
  0
LINE
  8
0
 10
-46.1421
 20
-72.7762
 11
-46.0316
 21
-72.7229
  0
LINE
  8
0
 10
-46.0316
 20
-72.7229
 11
-45.9186
 21
-72.675
  0
LINE
  8
0
 10
-45.9186
 20
-72.675
 11
-45.8034
 21
-72.6327
  0
LINE
  8
0
 10
-45.8034
 20
-72.6327
 11
-45.6863
 21
-72.5961
  0
LINE
  8
0
 10
-45.6863
 20
-72.5961
 11
-45.5675
 21
-72.5653
  0
LINE
  8
0
 10
-45.5675
 20
-72.5653
 11
-45.4474
 21
-72.5404
  0
LINE
  8
0
 10
-45.4474
 20
-72.5404
 11
-45.3261
 21
-72.5214
  0
LINE
  8
0
 10
-45.3261
 20
-72.5214
 11
-45.2041
 21
-72.5084
  0
LINE
  8
0
 10
-45.2041
 20
-72.5084
 11
-45.0816
 21
-72.5013
  0
LINE
  8
0
 10
-45.0816
 20
-72.5013
 11
-44.9589
 21
-72.5003
  0
LINE
  8
0
 10
-44.9589
 20
-72.5003
 11
-44.8363
 21
-72.5054
  0
LINE
  8
0
 10
-44.8363
 20
-72.5054
 11
-44.7141
 21
-72.5164
  0
LINE
  8
0
 10
-44.7141
 20
-72.5164
 11
-44.5926
 21
-72.5334
  0
LINE
  8
0
 10
-44.5926
 20
-72.5334
 11
-44.472
 21
-72.5564
  0
LINE
  8
0
 10
-44.472
 20
-72.5564
 11
-44.3528
 21
-72.5852
  0
LINE
  8
0
 10
-44.3528
 20
-72.5852
 11
-44.2351
 21
-72.6198
  0
LINE
  8
0
 10
-44.2351
 20
-72.6198
 11
-44.1192
 21
-72.6602
  0
LINE
  8
0
 10
53.3618
 20
-142.209
 11
53.2554
 21
-142.126
  0
LINE
  8
0
 10
53.2554
 20
-142.126
 11
53.1532
 21
-142.038
  0
LINE
  8
0
 10
53.1532
 20
-142.038
 11
53.0555
 21
-141.945
  0
LINE
  8
0
 10
53.0555
 20
-141.945
 11
52.9624
 21
-141.847
  0
LINE
  8
0
 10
52.9624
 20
-141.847
 11
52.8742
 21
-141.745
  0
LINE
  8
0
 10
52.8742
 20
-141.745
 11
52.7912
 21
-141.638
  0
LINE
  8
0
 10
52.7912
 20
-141.638
 11
52.7135
 21
-141.528
  0
LINE
  8
0
 10
52.7135
 20
-141.528
 11
52.6412
 21
-141.414
  0
LINE
  8
0
 10
52.6412
 20
-141.414
 11
52.5747
 21
-141.296
  0
LINE
  8
0
 10
52.5747
 20
-141.296
 11
52.514
 21
-141.176
  0
LINE
  8
0
 10
52.514
 20
-141.176
 11
52.4593
 21
-141.052
  0
LINE
  8
0
 10
52.4593
 20
-141.052
 11
52.4108
 21
-140.926
  0
LINE
  8
0
 10
52.4108
 20
-140.926
 11
52.3684
 21
-140.798
  0
LINE
  8
0
 10
52.3684
 20
-140.798
 11
52.3324
 21
-140.668
  0
LINE
  8
0
 10
52.3324
 20
-140.668
 11
52.3028
 21
-140.536
  0
LINE
  8
0
 10
52.3028
 20
-140.536
 11
52.2798
 21
-140.404
  0
LINE
  8
0
 10
52.2798
 20
-140.404
 11
52.2632
 21
-140.27
  0
LINE
  8
0
 10
52.2632
 20
-140.27
 11
52.2533
 21
-140.135
  0
LINE
  8
0
 10
52.2533
 20
-140.135
 11
52.25
 21
-140
  0
LINE
  8
0
 10
52.25
 20
-140
 11
52.2533
 21
-139.865
  0
LINE
  8
0
 10
52.2533
 20
-139.865
 11
52.2632
 21
-139.73
  0
LINE
  8
0
 10
52.2632
 20
-139.73
 11
52.2798
 21
-139.596
  0
LINE
  8
0
 10
52.2798
 20
-139.596
 11
52.3028
 21
-139.464
  0
LINE
  8
0
 10
52.3028
 20
-139.464
 11
52.3324
 21
-139.332
  0
LINE
  8
0
 10
52.3324
 20
-139.332
 11
52.3684
 21
-139.202
  0
LINE
  8
0
 10
52.3684
 20
-139.202
 11
52.4108
 21
-139.074
  0
LINE
  8
0
 10
52.4108
 20
-139.074
 11
52.4593
 21
-138.948
  0
LINE
  8
0
 10
52.4593
 20
-138.948
 11
52.514
 21
-138.824
  0
LINE
  8
0
 10
52.514
 20
-138.824
 11
52.5747
 21
-138.704
  0
LINE
  8
0
 10
52.5747
 20
-138.704
 11
52.6412
 21
-138.586
  0
LINE
  8
0
 10
52.6412
 20
-138.586
 11
52.7135
 21
-138.472
  0
LINE
  8
0
 10
52.7135
 20
-138.472
 11
52.7912
 21
-138.362
  0
LINE
  8
0
 10
52.7912
 20
-138.362
 11
52.8742
 21
-138.255
  0
LINE
  8
0
 10
52.8742
 20
-138.255
 11
52.9624
 21
-138.153
  0
LINE
  8
0
 10
52.9624
 20
-138.153
 11
53.0555
 21
-138.055
  0
LINE
  8
0
 10
53.0555
 20
-138.055
 11
53.1532
 21
-137.962
  0
LINE
  8
0
 10
53.1532
 20
-137.962
 11
53.2554
 21
-137.874
  0
LINE
  8
0
 10
53.2554
 20
-137.874
 11
53.3618
 21
-137.791
  0
LINE
  8
0
 10
53.3618
 20
-137.791
 11
53.4722
 21
-137.713
  0
LINE
  8
0
 10
53.4722
 20
-137.713
 11
53.5862
 21
-137.641
  0
LINE
  8
0
 10
53.5862
 20
-137.641
 11
53.7037
 21
-137.575
  0
LINE
  8
0
 10
53.7037
 20
-137.575
 11
53.8242
 21
-137.514
  0
LINE
  8
0
 10
53.8242
 20
-137.514
 11
53.9476
 21
-137.459
  0
LINE
  8
0
 10
53.9476
 20
-137.459
 11
54.0735
 21
-137.411
  0
LINE
  8
0
 10
54.0735
 20
-137.411
 11
54.2017
 21
-137.368
  0
LINE
  8
0
 10
54.2017
 20
-137.368
 11
54.3318
 21
-137.332
  0
LINE
  8
0
 10
54.3318
 20
-137.332
 11
54.4635
 21
-137.303
  0
LINE
  8
0
 10
54.4635
 20
-137.303
 11
54.5965
 21
-137.28
  0
LINE
  8
0
 10
54.5965
 20
-137.28
 11
54.7305
 21
-137.263
  0
LINE
  8
0
 10
54.7305
 20
-137.263
 11
54.8651
 21
-137.253
  0
LINE
  8
0
 10
54.8651
 20
-137.253
 11
55
 21
-137.25
  0
LINE
  8
0
 10
55
 20
-137.25
 11
55.1349
 21
-137.253
  0
LINE
  8
0
 10
55.1349
 20
-137.253
 11
55.2695
 21
-137.263
  0
LINE
  8
0
 10
55.2695
 20
-137.263
 11
55.4035
 21
-137.28
  0
LINE
  8
0
 10
55.4035
 20
-137.28
 11
55.5365
 21
-137.303
  0
LINE
  8
0
 10
55.5365
 20
-137.303
 11
55.6682
 21
-137.332
  0
LINE
  8
0
 10
55.6682
 20
-137.332
 11
55.7983
 21
-137.368
  0
LINE
  8
0
 10
55.7983
 20
-137.368
 11
55.9264
 21
-137.411
  0
LINE
  8
0
 10
55.9264
 20
-137.411
 11
56.0524
 21
-137.459
  0
LINE
  8
0
 10
56.0524
 20
-137.459
 11
56.1758
 21
-137.514
  0
LINE
  8
0
 10
56.1758
 20
-137.514
 11
56.2963
 21
-137.575
  0
LINE
  8
0
 10
56.2963
 20
-137.575
 11
56.4138
 21
-137.641
  0
LINE
  8
0
 10
56.4138
 20
-137.641
 11
56.5278
 21
-137.713
  0
LINE
  8
0
 10
56.5278
 20
-137.713
 11
56.6382
 21
-137.791
  0
LINE
  8
0
 10
56.6382
 20
-137.791
 11
56.7446
 21
-137.874
  0
LINE
  8
0
 10
56.7446
 20
-137.874
 11
56.8468
 21
-137.962
  0
LINE
  8
0
 10
56.8468
 20
-137.962
 11
56.9445
 21
-138.055
  0
LINE
  8
0
 10
56.9445
 20
-138.055
 11
57.0376
 21
-138.153
  0
LINE
  8
0
 10
57.0376
 20
-138.153
 11
57.1258
 21
-138.255
  0
LINE
  8
0
 10
57.1258
 20
-138.255
 11
57.2088
 21
-138.362
  0
LINE
  8
0
 10
57.2088
 20
-138.362
 11
57.2865
 21
-138.472
  0
LINE
  8
0
 10
57.2865
 20
-138.472
 11
57.3587
 21
-138.586
  0
LINE
  8
0
 10
57.3587
 20
-138.586
 11
57.4253
 21
-138.704
  0
LINE
  8
0
 10
57.4253
 20
-138.704
 11
57.486
 21
-138.824
  0
LINE
  8
0
 10
57.486
 20
-138.824
 11
57.5407
 21
-138.948
  0
LINE
  8
0
 10
57.5407
 20
-138.948
 11
57.5892
 21
-139.074
  0
LINE
  8
0
 10
57.5892
 20
-139.074
 11
57.6316
 21
-139.202
  0
LINE
  8
0
 10
57.6316
 20
-139.202
 11
57.6676
 21
-139.332
  0
LINE
  8
0
 10
57.6676
 20
-139.332
 11
57.6972
 21
-139.464
  0
LINE
  8
0
 10
57.6972
 20
-139.464
 11
57.7202
 21
-139.596
  0
LINE
  8
0
 10
57.7202
 20
-139.596
 11
57.7368
 21
-139.73
  0
LINE
  8
0
 10
57.7368
 20
-139.73
 11
57.7467
 21
-139.865
  0
LINE
  8
0
 10
57.7467
 20
-139.865
 11
57.75
 21
-140
  0
LINE
  8
0
 10
57.75
 20
-140
 11
57.7467
 21
-140.135
  0
LINE
  8
0
 10
57.7467
 20
-140.135
 11
57.7368
 21
-140.27
  0
LINE
  8
0
 10
57.7368
 20
-140.27
 11
57.7202
 21
-140.404
  0
LINE
  8
0
 10
57.7202
 20
-140.404
 11
57.6972
 21
-140.536
  0
LINE
  8
0
 10
57.6972
 20
-140.536
 11
57.6676
 21
-140.668
  0
LINE
  8
0
 10
57.6676
 20
-140.668
 11
57.6316
 21
-140.798
  0
LINE
  8
0
 10
57.6316
 20
-140.798
 11
57.5892
 21
-140.926
  0
LINE
  8
0
 10
57.5892
 20
-140.926
 11
57.5407
 21
-141.052
  0
LINE
  8
0
 10
57.5407
 20
-141.052
 11
57.486
 21
-141.176
  0
LINE
  8
0
 10
57.486
 20
-141.176
 11
57.4253
 21
-141.296
  0
LINE
  8
0
 10
57.4253
 20
-141.296
 11
57.3587
 21
-141.414
  0
LINE
  8
0
 10
57.3587
 20
-141.414
 11
57.2865
 21
-141.528
  0
LINE
  8
0
 10
57.2865
 20
-141.528
 11
57.2088
 21
-141.638
  0
LINE
  8
0
 10
57.2088
 20
-141.638
 11
57.1258
 21
-141.745
  0
LINE
  8
0
 10
57.1258
 20
-141.745
 11
57.0376
 21
-141.847
  0
LINE
  8
0
 10
57.0376
 20
-141.847
 11
56.9445
 21
-141.945
  0
LINE
  8
0
 10
56.9445
 20
-141.945
 11
56.8468
 21
-142.038
  0
LINE
  8
0
 10
56.8468
 20
-142.038
 11
56.7446
 21
-142.126
  0
LINE
  8
0
 10
56.7446
 20
-142.126
 11
56.6382
 21
-142.209
  0
LINE
  8
0
 10
56.6382
 20
-142.209
 11
56.5278
 21
-142.287
  0
LINE
  8
0
 10
56.5278
 20
-142.287
 11
56.4138
 21
-142.359
  0
LINE
  8
0
 10
56.4138
 20
-142.359
 11
56.2963
 21
-142.425
  0
LINE
  8
0
 10
56.2963
 20
-142.425
 11
56.1758
 21
-142.486
  0
LINE
  8
0
 10
56.1758
 20
-142.486
 11
56.0524
 21
-142.541
  0
LINE
  8
0
 10
56.0524
 20
-142.541
 11
55.9264
 21
-142.589
  0
LINE
  8
0
 10
55.9264
 20
-142.589
 11
55.7983
 21
-142.632
  0
LINE
  8
0
 10
55.7983
 20
-142.632
 11
55.6682
 21
-142.668
  0
LINE
  8
0
 10
55.6682
 20
-142.668
 11
55.5365
 21
-142.697
  0
LINE
  8
0
 10
55.5365
 20
-142.697
 11
55.4035
 21
-142.72
  0
LINE
  8
0
 10
55.4035
 20
-142.72
 11
55.2695
 21
-142.737
  0
LINE
  8
0
 10
55.2695
 20
-142.737
 11
55.1349
 21
-142.747
  0
LINE
  8
0
 10
55.1349
 20
-142.747
 11
55
 21
-142.75
  0
LINE
  8
0
 10
55
 20
-142.75
 11
54.8651
 21
-142.747
  0
LINE
  8
0
 10
54.8651
 20
-142.747
 11
54.7305
 21
-142.737
  0
LINE
  8
0
 10
54.7305
 20
-142.737
 11
54.5965
 21
-142.72
  0
LINE
  8
0
 10
54.5965
 20
-142.72
 11
54.4635
 21
-142.697
  0
LINE
  8
0
 10
54.4635
 20
-142.697
 11
54.3318
 21
-142.668
  0
LINE
  8
0
 10
54.3318
 20
-142.668
 11
54.2017
 21
-142.632
  0
LINE
  8
0
 10
54.2017
 20
-142.632
 11
54.0735
 21
-142.589
  0
LINE
  8
0
 10
54.0735
 20
-142.589
 11
53.9476
 21
-142.541
  0
LINE
  8
0
 10
53.9476
 20
-142.541
 11
53.8242
 21
-142.486
  0
LINE
  8
0
 10
53.8242
 20
-142.486
 11
53.7037
 21
-142.425
  0
LINE
  8
0
 10
53.7037
 20
-142.425
 11
53.5862
 21
-142.359
  0
LINE
  8
0
 10
53.5862
 20
-142.359
 11
53.4722
 21
-142.287
  0
LINE
  8
0
 10
53.4722
 20
-142.287
 11
53.3618
 21
-142.209
  0
LINE
  8
0
 10
-1.05237
 20
-142.541
 11
-1.17577
 21
-142.486
  0
LINE
  8
0
 10
-1.17577
 20
-142.486
 11
-1.29634
 21
-142.425
  0
LINE
  8
0
 10
-1.29634
 20
-142.425
 11
-1.41377
 21
-142.359
  0
LINE
  8
0
 10
-1.41377
 20
-142.359
 11
-1.52782
 21
-142.287
  0
LINE
  8
0
 10
-1.52782
 20
-142.287
 11
-1.63817
 21
-142.209
  0
LINE
  8
0
 10
-1.63817
 20
-142.209
 11
-1.74457
 21
-142.126
  0
LINE
  8
0
 10
-1.74457
 20
-142.126
 11
-1.84679
 21
-142.038
  0
LINE
  8
0
 10
-1.84679
 20
-142.038
 11
-1.94453
 21
-141.945
  0
LINE
  8
0
 10
-1.94453
 20
-141.945
 11
-2.03761
 21
-141.847
  0
LINE
  8
0
 10
-2.03761
 20
-141.847
 11
-2.12578
 21
-141.745
  0
LINE
  8
0
 10
-2.12578
 20
-141.745
 11
-2.20882
 21
-141.638
  0
LINE
  8
0
 10
-2.20882
 20
-141.638
 11
-2.28653
 21
-141.528
  0
LINE
  8
0
 10
-2.28653
 20
-141.528
 11
-2.35875
 21
-141.414
  0
LINE
  8
0
 10
-2.35875
 20
-141.414
 11
-2.42528
 21
-141.296
  0
LINE
  8
0
 10
-2.42528
 20
-141.296
 11
-2.48596
 21
-141.176
  0
LINE
  8
0
 10
-2.48596
 20
-141.176
 11
-2.54066
 21
-141.052
  0
LINE
  8
0
 10
-2.54066
 20
-141.052
 11
-2.58923
 21
-140.926
  0
LINE
  8
0
 10
-2.58923
 20
-140.926
 11
-2.63158
 21
-140.798
  0
LINE
  8
0
 10
-2.63158
 20
-140.798
 11
-2.66757
 21
-140.668
  0
LINE
  8
0
 10
-2.66757
 20
-140.668
 11
-2.69716
 21
-140.536
  0
LINE
  8
0
 10
-2.69716
 20
-140.536
 11
-2.72023
 21
-140.404
  0
LINE
  8
0
 10
-2.72023
 20
-140.404
 11
-2.73676
 21
-140.27
  0
LINE
  8
0
 10
-2.73676
 20
-140.27
 11
-2.74667
 21
-140.135
  0
LINE
  8
0
 10
-2.74667
 20
-140.135
 11
-2.75
 21
-140
  0
LINE
  8
0
 10
-2.75
 20
-140
 11
-2.74667
 21
-139.865
  0
LINE
  8
0
 10
-2.74667
 20
-139.865
 11
-2.73676
 21
-139.73
  0
LINE
  8
0
 10
-2.73676
 20
-139.73
 11
-2.72023
 21
-139.596
  0
LINE
  8
0
 10
-2.72023
 20
-139.596
 11
-2.69716
 21
-139.464
  0
LINE
  8
0
 10
-2.69716
 20
-139.464
 11
-2.66757
 21
-139.332
  0
LINE
  8
0
 10
-2.66757
 20
-139.332
 11
-2.63158
 21
-139.202
  0
LINE
  8
0
 10
-2.63158
 20
-139.202
 11
-2.58923
 21
-139.074
  0
LINE
  8
0
 10
-2.58923
 20
-139.074
 11
-2.54066
 21
-138.948
  0
LINE
  8
0
 10
-2.54066
 20
-138.948
 11
-2.48596
 21
-138.824
  0
LINE
  8
0
 10
-2.48596
 20
-138.824
 11
-2.42528
 21
-138.704
  0
LINE
  8
0
 10
-2.42528
 20
-138.704
 11
-2.35875
 21
-138.586
  0
LINE
  8
0
 10
-2.35875
 20
-138.586
 11
-2.28653
 21
-138.472
  0
LINE
  8
0
 10
-2.28653
 20
-138.472
 11
-2.20882
 21
-138.362
  0
LINE
  8
0
 10
-2.20882
 20
-138.362
 11
-2.12578
 21
-138.255
  0
LINE
  8
0
 10
-2.12578
 20
-138.255
 11
-2.03761
 21
-138.153
  0
LINE
  8
0
 10
-2.03761
 20
-138.153
 11
-1.94453
 21
-138.055
  0
LINE
  8
0
 10
-1.94453
 20
-138.055
 11
-1.84679
 21
-137.962
  0
LINE
  8
0
 10
-1.84679
 20
-137.962
 11
-1.74457
 21
-137.874
  0
LINE
  8
0
 10
-1.74457
 20
-137.874
 11
-1.63817
 21
-137.791
  0
LINE
  8
0
 10
-1.63817
 20
-137.791
 11
-1.52782
 21
-137.713
  0
LINE
  8
0
 10
-1.52782
 20
-137.713
 11
-1.41377
 21
-137.641
  0
LINE
  8
0
 10
-1.41377
 20
-137.641
 11
-1.29634
 21
-137.575
  0
LINE
  8
0
 10
-1.29634
 20
-137.575
 11
-1.17577
 21
-137.514
  0
LINE
  8
0
 10
-1.17577
 20
-137.514
 11
-1.05237
 21
-137.459
  0
LINE
  8
0
 10
-1.05237
 20
-137.459
 11
-0.926437
 21
-137.411
  0
LINE
  8
0
 10
-0.926437
 20
-137.411
 11
-0.798279
 21
-137.368
  0
LINE
  8
0
 10
-0.798279
 20
-137.368
 11
-0.668182
 21
-137.332
  0
LINE
  8
0
 10
-0.668182
 20
-137.332
 11
-0.536484
 21
-137.303
  0
LINE
  8
0
 10
-0.536484
 20
-137.303
 11
-0.403503
 21
-137.28
  0
LINE
  8
0
 10
-0.403503
 20
-137.28
 11
-0.269547
 21
-137.263
  0
LINE
  8
0
 10
-0.269547
 20
-137.263
 11
-0.134933
 21
-137.253
  0
LINE
  8
0
 10
-0.134933
 20
-137.253
 11
0
 21
-137.25
  0
LINE
  8
0
 10
0
 20
-137.25
 11
0.134933
 21
-137.253
  0
LINE
  8
0
 10
0.134933
 20
-137.253
 11
0.269547
 21
-137.263
  0
LINE
  8
0
 10
0.269547
 20
-137.263
 11
0.403503
 21
-137.28
  0
LINE
  8
0
 10
0.403503
 20
-137.28
 11
0.536484
 21
-137.303
  0
LINE
  8
0
 10
0.536484
 20
-137.303
 11
0.668182
 21
-137.332
  0
LINE
  8
0
 10
0.668182
 20
-137.332
 11
0.798279
 21
-137.368
  0
LINE
  8
0
 10
0.798279
 20
-137.368
 11
0.926437
 21
-137.411
  0
LINE
  8
0
 10
0.926437
 20
-137.411
 11
1.05237
 21
-137.459
  0
LINE
  8
0
 10
1.05237
 20
-137.459
 11
1.17577
 21
-137.514
  0
LINE
  8
0
 10
1.17577
 20
-137.514
 11
1.29634
 21
-137.575
  0
LINE
  8
0
 10
1.29634
 20
-137.575
 11
1.41377
 21
-137.641
  0
LINE
  8
0
 10
1.41377
 20
-137.641
 11
1.52782
 21
-137.713
  0
LINE
  8
0
 10
1.52782
 20
-137.713
 11
1.63817
 21
-137.791
  0
LINE
  8
0
 10
1.63817
 20
-137.791
 11
1.74457
 21
-137.874
  0
LINE
  8
0
 10
1.74457
 20
-137.874
 11
1.84679
 21
-137.962
  0
LINE
  8
0
 10
1.84679
 20
-137.962
 11
1.94453
 21
-138.055
  0
LINE
  8
0
 10
1.94453
 20
-138.055
 11
2.03761
 21
-138.153
  0
LINE
  8
0
 10
2.03761
 20
-138.153
 11
2.12578
 21
-138.255
  0
LINE
  8
0
 10
2.12578
 20
-138.255
 11
2.20882
 21
-138.362
  0
LINE
  8
0
 10
2.20882
 20
-138.362
 11
2.28653
 21
-138.472
  0
LINE
  8
0
 10
2.28653
 20
-138.472
 11
2.35875
 21
-138.586
  0
LINE
  8
0
 10
2.35875
 20
-138.586
 11
2.42528
 21
-138.704
  0
LINE
  8
0
 10
2.42528
 20
-138.704
 11
2.48596
 21
-138.824
  0
LINE
  8
0
 10
2.48596
 20
-138.824
 11
2.54066
 21
-138.948
  0
LINE
  8
0
 10
2.54066
 20
-138.948
 11
2.58923
 21
-139.074
  0
LINE
  8
0
 10
2.58923
 20
-139.074
 11
2.63158
 21
-139.202
  0
LINE
  8
0
 10
2.63158
 20
-139.202
 11
2.66757
 21
-139.332
  0
LINE
  8
0
 10
2.66757
 20
-139.332
 11
2.69716
 21
-139.464
  0
LINE
  8
0
 10
2.69716
 20
-139.464
 11
2.72023
 21
-139.596
  0
LINE
  8
0
 10
2.72023
 20
-139.596
 11
2.73676
 21
-139.73
  0
LINE
  8
0
 10
2.73676
 20
-139.73
 11
2.74667
 21
-139.865
  0
LINE
  8
0
 10
2.74667
 20
-139.865
 11
2.75
 21
-140
  0
LINE
  8
0
 10
2.75
 20
-140
 11
2.74667
 21
-140.135
  0
LINE
  8
0
 10
2.74667
 20
-140.135
 11
2.73676
 21
-140.27
  0
LINE
  8
0
 10
2.73676
 20
-140.27
 11
2.72023
 21
-140.404
  0
LINE
  8
0
 10
2.72023
 20
-140.404
 11
2.69716
 21
-140.536
  0
LINE
  8
0
 10
2.69716
 20
-140.536
 11
2.66757
 21
-140.668
  0
LINE
  8
0
 10
2.66757
 20
-140.668
 11
2.63158
 21
-140.798
  0
LINE
  8
0
 10
2.63158
 20
-140.798
 11
2.58923
 21
-140.926
  0
LINE
  8
0
 10
2.58923
 20
-140.926
 11
2.54066
 21
-141.052
  0
LINE
  8
0
 10
2.54066
 20
-141.052
 11
2.48596
 21
-141.176
  0
LINE
  8
0
 10
2.48596
 20
-141.176
 11
2.42528
 21
-141.296
  0
LINE
  8
0
 10
2.42528
 20
-141.296
 11
2.35875
 21
-141.414
  0
LINE
  8
0
 10
2.35875
 20
-141.414
 11
2.28653
 21
-141.528
  0
LINE
  8
0
 10
2.28653
 20
-141.528
 11
2.20882
 21
-141.638
  0
LINE
  8
0
 10
2.20882
 20
-141.638
 11
2.12578
 21
-141.745
  0
LINE
  8
0
 10
2.12578
 20
-141.745
 11
2.03761
 21
-141.847
  0
LINE
  8
0
 10
2.03761
 20
-141.847
 11
1.94453
 21
-141.945
  0
LINE
  8
0
 10
1.94453
 20
-141.945
 11
1.84679
 21
-142.038
  0
LINE
  8
0
 10
1.84679
 20
-142.038
 11
1.74457
 21
-142.126
  0
LINE
  8
0
 10
1.74457
 20
-142.126
 11
1.63817
 21
-142.209
  0
LINE
  8
0
 10
1.63817
 20
-142.209
 11
1.52782
 21
-142.287
  0
LINE
  8
0
 10
1.52782
 20
-142.287
 11
1.41377
 21
-142.359
  0
LINE
  8
0
 10
1.41377
 20
-142.359
 11
1.29634
 21
-142.425
  0
LINE
  8
0
 10
1.29634
 20
-142.425
 11
1.17577
 21
-142.486
  0
LINE
  8
0
 10
1.17577
 20
-142.486
 11
1.05237
 21
-142.541
  0
LINE
  8
0
 10
1.05237
 20
-142.541
 11
0.926437
 21
-142.589
  0
LINE
  8
0
 10
0.926437
 20
-142.589
 11
0.798279
 21
-142.632
  0
LINE
  8
0
 10
0.798279
 20
-142.632
 11
0.668182
 21
-142.668
  0
LINE
  8
0
 10
0.668182
 20
-142.668
 11
0.536484
 21
-142.697
  0
LINE
  8
0
 10
0.536484
 20
-142.697
 11
0.403503
 21
-142.72
  0
LINE
  8
0
 10
0.403503
 20
-142.72
 11
0.269547
 21
-142.737
  0
LINE
  8
0
 10
0.269547
 20
-142.737
 11
0.134933
 21
-142.747
  0
LINE
  8
0
 10
0.134933
 20
-142.747
 11
0
 21
-142.75
  0
LINE
  8
0
 10
0
 20
-142.75
 11
-0.134933
 21
-142.747
  0
LINE
  8
0
 10
-0.134933
 20
-142.747
 11
-0.269547
 21
-142.737
  0
LINE
  8
0
 10
-0.269547
 20
-142.737
 11
-0.403503
 21
-142.72
  0
LINE
  8
0
 10
-0.403503
 20
-142.72
 11
-0.536484
 21
-142.697
  0
LINE
  8
0
 10
-0.536484
 20
-142.697
 11
-0.668182
 21
-142.668
  0
LINE
  8
0
 10
-0.668182
 20
-142.668
 11
-0.798279
 21
-142.632
  0
LINE
  8
0
 10
-0.798279
 20
-142.632
 11
-0.926437
 21
-142.589
  0
LINE
  8
0
 10
-0.926437
 20
-142.589
 11
-1.05237
 21
-142.541
  0
LINE
  8
0
 10
-107.263
 20
-140.27
 11
-107.28
 21
-140.404
  0
LINE
  8
0
 10
-107.28
 20
-140.404
 11
-107.303
 21
-140.536
  0
LINE
  8
0
 10
-107.303
 20
-140.536
 11
-107.332
 21
-140.668
  0
LINE
  8
0
 10
-107.332
 20
-140.668
 11
-107.368
 21
-140.798
  0
LINE
  8
0
 10
-107.368
 20
-140.798
 11
-107.411
 21
-140.926
  0
LINE
  8
0
 10
-107.411
 20
-140.926
 11
-107.459
 21
-141.052
  0
LINE
  8
0
 10
-107.459
 20
-141.052
 11
-107.514
 21
-141.176
  0
LINE
  8
0
 10
-107.514
 20
-141.176
 11
-107.575
 21
-141.296
  0
LINE
  8
0
 10
-107.575
 20
-141.296
 11
-107.641
 21
-141.414
  0
LINE
  8
0
 10
-107.641
 20
-141.414
 11
-107.713
 21
-141.528
  0
LINE
  8
0
 10
-107.713
 20
-141.528
 11
-107.791
 21
-141.638
  0
LINE
  8
0
 10
-107.791
 20
-141.638
 11
-107.874
 21
-141.745
  0
LINE
  8
0
 10
-107.874
 20
-141.745
 11
-107.962
 21
-141.847
  0
LINE
  8
0
 10
-107.962
 20
-141.847
 11
-108.055
 21
-141.945
  0
LINE
  8
0
 10
-108.055
 20
-141.945
 11
-108.153
 21
-142.038
  0
LINE
  8
0
 10
-108.153
 20
-142.038
 11
-108.255
 21
-142.126
  0
LINE
  8
0
 10
-108.255
 20
-142.126
 11
-108.362
 21
-142.209
  0
LINE
  8
0
 10
-108.362
 20
-142.209
 11
-108.472
 21
-142.287
  0
LINE
  8
0
 10
-108.472
 20
-142.287
 11
-108.586
 21
-142.359
  0
LINE
  8
0
 10
-108.586
 20
-142.359
 11
-108.704
 21
-142.425
  0
LINE
  8
0
 10
-108.704
 20
-142.425
 11
-108.824
 21
-142.486
  0
LINE
  8
0
 10
-108.824
 20
-142.486
 11
-108.948
 21
-142.541
  0
LINE
  8
0
 10
-108.948
 20
-142.541
 11
-109.074
 21
-142.589
  0
LINE
  8
0
 10
-109.074
 20
-142.589
 11
-109.202
 21
-142.632
  0
LINE
  8
0
 10
-109.202
 20
-142.632
 11
-109.332
 21
-142.668
  0
LINE
  8
0
 10
-109.332
 20
-142.668
 11
-109.464
 21
-142.697
  0
LINE
  8
0
 10
-109.464
 20
-142.697
 11
-109.596
 21
-142.72
  0
LINE
  8
0
 10
-109.596
 20
-142.72
 11
-109.73
 21
-142.737
  0
LINE
  8
0
 10
-109.73
 20
-142.737
 11
-109.865
 21
-142.747
  0
LINE
  8
0
 10
-109.865
 20
-142.747
 11
-110
 21
-142.75
  0
LINE
  8
0
 10
-110
 20
-142.75
 11
-110.135
 21
-142.747
  0
LINE
  8
0
 10
-110.135
 20
-142.747
 11
-110.27
 21
-142.737
  0
LINE
  8
0
 10
-110.27
 20
-142.737
 11
-110.404
 21
-142.72
  0
LINE
  8
0
 10
-110.404
 20
-142.72
 11
-110.536
 21
-142.697
  0
LINE
  8
0
 10
-110.536
 20
-142.697
 11
-110.668
 21
-142.668
  0
LINE
  8
0
 10
-110.668
 20
-142.668
 11
-110.798
 21
-142.632
  0
LINE
  8
0
 10
-110.798
 20
-142.632
 11
-110.926
 21
-142.589
  0
LINE
  8
0
 10
-110.926
 20
-142.589
 11
-111.052
 21
-142.541
  0
LINE
  8
0
 10
-111.052
 20
-142.541
 11
-111.176
 21
-142.486
  0
LINE
  8
0
 10
-111.176
 20
-142.486
 11
-111.296
 21
-142.425
  0
LINE
  8
0
 10
-111.296
 20
-142.425
 11
-111.414
 21
-142.359
  0
LINE
  8
0
 10
-111.414
 20
-142.359
 11
-111.528
 21
-142.287
  0
LINE
  8
0
 10
-111.528
 20
-142.287
 11
-111.638
 21
-142.209
  0
LINE
  8
0
 10
-111.638
 20
-142.209
 11
-111.745
 21
-142.126
  0
LINE
  8
0
 10
-111.745
 20
-142.126
 11
-111.847
 21
-142.038
  0
LINE
  8
0
 10
-111.847
 20
-142.038
 11
-111.945
 21
-141.945
  0
LINE
  8
0
 10
-111.945
 20
-141.945
 11
-112.038
 21
-141.847
  0
LINE
  8
0
 10
-112.038
 20
-141.847
 11
-112.126
 21
-141.745
  0
LINE
  8
0
 10
-112.126
 20
-141.745
 11
-112.209
 21
-141.638
  0
LINE
  8
0
 10
-112.209
 20
-141.638
 11
-112.287
 21
-141.528
  0
LINE
  8
0
 10
-112.287
 20
-141.528
 11
-112.359
 21
-141.414
  0
LINE
  8
0
 10
-112.359
 20
-141.414
 11
-112.425
 21
-141.296
  0
LINE
  8
0
 10
-112.425
 20
-141.296
 11
-112.486
 21
-141.176
  0
LINE
  8
0
 10
-112.486
 20
-141.176
 11
-112.541
 21
-141.052
  0
LINE
  8
0
 10
-112.541
 20
-141.052
 11
-112.589
 21
-140.926
  0
LINE
  8
0
 10
-112.589
 20
-140.926
 11
-112.632
 21
-140.798
  0
LINE
  8
0
 10
-112.632
 20
-140.798
 11
-112.668
 21
-140.668
  0
LINE
  8
0
 10
-112.668
 20
-140.668
 11
-112.697
 21
-140.536
  0
LINE
  8
0
 10
-112.697
 20
-140.536
 11
-112.72
 21
-140.404
  0
LINE
  8
0
 10
-112.72
 20
-140.404
 11
-112.737
 21
-140.27
  0
LINE
  8
0
 10
-112.737
 20
-140.27
 11
-112.747
 21
-140.135
  0
LINE
  8
0
 10
-112.747
 20
-140.135
 11
-112.75
 21
-140
  0
LINE
  8
0
 10
-112.75
 20
-140
 11
-112.747
 21
-139.865
  0
LINE
  8
0
 10
-112.747
 20
-139.865
 11
-112.737
 21
-139.73
  0
LINE
  8
0
 10
-112.737
 20
-139.73
 11
-112.72
 21
-139.596
  0
LINE
  8
0
 10
-112.72
 20
-139.596
 11
-112.697
 21
-139.464
  0
LINE
  8
0
 10
-112.697
 20
-139.464
 11
-112.668
 21
-139.332
  0
LINE
  8
0
 10
-112.668
 20
-139.332
 11
-112.632
 21
-139.202
  0
LINE
  8
0
 10
-112.632
 20
-139.202
 11
-112.589
 21
-139.074
  0
LINE
  8
0
 10
-112.589
 20
-139.074
 11
-112.541
 21
-138.948
  0
LINE
  8
0
 10
-112.541
 20
-138.948
 11
-112.486
 21
-138.824
  0
LINE
  8
0
 10
-112.486
 20
-138.824
 11
-112.425
 21
-138.704
  0
LINE
  8
0
 10
-112.425
 20
-138.704
 11
-112.359
 21
-138.586
  0
LINE
  8
0
 10
-112.359
 20
-138.586
 11
-112.287
 21
-138.472
  0
LINE
  8
0
 10
-112.287
 20
-138.472
 11
-112.209
 21
-138.362
  0
LINE
  8
0
 10
-112.209
 20
-138.362
 11
-112.126
 21
-138.255
  0
LINE
  8
0
 10
-112.126
 20
-138.255
 11
-112.038
 21
-138.153
  0
LINE
  8
0
 10
-112.038
 20
-138.153
 11
-111.945
 21
-138.055
  0
LINE
  8
0
 10
-111.945
 20
-138.055
 11
-111.847
 21
-137.962
  0
LINE
  8
0
 10
-111.847
 20
-137.962
 11
-111.745
 21
-137.874
  0
LINE
  8
0
 10
-111.745
 20
-137.874
 11
-111.638
 21
-137.791
  0
LINE
  8
0
 10
-111.638
 20
-137.791
 11
-111.528
 21
-137.713
  0
LINE
  8
0
 10
-111.528
 20
-137.713
 11
-111.414
 21
-137.641
  0
LINE
  8
0
 10
-111.414
 20
-137.641
 11
-111.296
 21
-137.575
  0
LINE
  8
0
 10
-111.296
 20
-137.575
 11
-111.176
 21
-137.514
  0
LINE
  8
0
 10
-111.176
 20
-137.514
 11
-111.052
 21
-137.459
  0
LINE
  8
0
 10
-111.052
 20
-137.459
 11
-110.926
 21
-137.411
  0
LINE
  8
0
 10
-110.926
 20
-137.411
 11
-110.798
 21
-137.368
  0
LINE
  8
0
 10
-110.798
 20
-137.368
 11
-110.668
 21
-137.332
  0
LINE
  8
0
 10
-110.668
 20
-137.332
 11
-110.536
 21
-137.303
  0
LINE
  8
0
 10
-110.536
 20
-137.303
 11
-110.404
 21
-137.28
  0
LINE
  8
0
 10
-110.404
 20
-137.28
 11
-110.27
 21
-137.263
  0
LINE
  8
0
 10
-110.27
 20
-137.263
 11
-110.135
 21
-137.253
  0
LINE
  8
0
 10
-110.135
 20
-137.253
 11
-110
 21
-137.25
  0
LINE
  8
0
 10
-110
 20
-137.25
 11
-109.865
 21
-137.253
  0
LINE
  8
0
 10
-109.865
 20
-137.253
 11
-109.73
 21
-137.263
  0
LINE
  8
0
 10
-109.73
 20
-137.263
 11
-109.596
 21
-137.28
  0
LINE
  8
0
 10
-109.596
 20
-137.28
 11
-109.464
 21
-137.303
  0
LINE
  8
0
 10
-109.464
 20
-137.303
 11
-109.332
 21
-137.332
  0
LINE
  8
0
 10
-109.332
 20
-137.332
 11
-109.202
 21
-137.368
  0
LINE
  8
0
 10
-109.202
 20
-137.368
 11
-109.074
 21
-137.411
  0
LINE
  8
0
 10
-109.074
 20
-137.411
 11
-108.948
 21
-137.459
  0
LINE
  8
0
 10
-108.948
 20
-137.459
 11
-108.824
 21
-137.514
  0
LINE
  8
0
 10
-108.824
 20
-137.514
 11
-108.704
 21
-137.575
  0
LINE
  8
0
 10
-108.704
 20
-137.575
 11
-108.586
 21
-137.641
  0
LINE
  8
0
 10
-108.586
 20
-137.641
 11
-108.472
 21
-137.713
  0
LINE
  8
0
 10
-108.472
 20
-137.713
 11
-108.362
 21
-137.791
  0
LINE
  8
0
 10
-108.362
 20
-137.791
 11
-108.255
 21
-137.874
  0
LINE
  8
0
 10
-108.255
 20
-137.874
 11
-108.153
 21
-137.962
  0
LINE
  8
0
 10
-108.153
 20
-137.962
 11
-108.055
 21
-138.055
  0
LINE
  8
0
 10
-108.055
 20
-138.055
 11
-107.962
 21
-138.153
  0
LINE
  8
0
 10
-107.962
 20
-138.153
 11
-107.874
 21
-138.255
  0
LINE
  8
0
 10
-107.874
 20
-138.255
 11
-107.791
 21
-138.362
  0
LINE
  8
0
 10
-107.791
 20
-138.362
 11
-107.713
 21
-138.472
  0
LINE
  8
0
 10
-107.713
 20
-138.472
 11
-107.641
 21
-138.586
  0
LINE
  8
0
 10
-107.641
 20
-138.586
 11
-107.575
 21
-138.704
  0
LINE
  8
0
 10
-107.575
 20
-138.704
 11
-107.514
 21
-138.824
  0
LINE
  8
0
 10
-107.514
 20
-138.824
 11
-107.459
 21
-138.948
  0
LINE
  8
0
 10
-107.459
 20
-138.948
 11
-107.411
 21
-139.074
  0
LINE
  8
0
 10
-107.411
 20
-139.074
 11
-107.368
 21
-139.202
  0
LINE
  8
0
 10
-107.368
 20
-139.202
 11
-107.332
 21
-139.332
  0
LINE
  8
0
 10
-107.332
 20
-139.332
 11
-107.303
 21
-139.464
  0
LINE
  8
0
 10
-107.303
 20
-139.464
 11
-107.28
 21
-139.596
  0
LINE
  8
0
 10
-107.28
 20
-139.596
 11
-107.263
 21
-139.73
  0
LINE
  8
0
 10
-107.263
 20
-139.73
 11
-107.253
 21
-139.865
  0
LINE
  8
0
 10
-107.253
 20
-139.865
 11
-107.25
 21
-140
  0
LINE
  8
0
 10
-107.25
 20
-140
 11
-107.253
 21
-140.135
  0
LINE
  8
0
 10
-107.253
 20
-140.135
 11
-107.263
 21
-140.27
  0
LINE
  8
0
 10
-55.7983
 20
-142.632
 11
-55.9264
 21
-142.589
  0
LINE
  8
0
 10
-55.9264
 20
-142.589
 11
-56.0524
 21
-142.541
  0
LINE
  8
0
 10
-56.0524
 20
-142.541
 11
-56.1758
 21
-142.486
  0
LINE
  8
0
 10
-56.1758
 20
-142.486
 11
-56.2963
 21
-142.425
  0
LINE
  8
0
 10
-56.2963
 20
-142.425
 11
-56.4138
 21
-142.359
  0
LINE
  8
0
 10
-56.4138
 20
-142.359
 11
-56.5278
 21
-142.287
  0
LINE
  8
0
 10
-56.5278
 20
-142.287
 11
-56.6382
 21
-142.209
  0
LINE
  8
0
 10
-56.6382
 20
-142.209
 11
-56.7446
 21
-142.126
  0
LINE
  8
0
 10
-56.7446
 20
-142.126
 11
-56.8468
 21
-142.038
  0
LINE
  8
0
 10
-56.8468
 20
-142.038
 11
-56.9445
 21
-141.945
  0
LINE
  8
0
 10
-56.9445
 20
-141.945
 11
-57.0376
 21
-141.847
  0
LINE
  8
0
 10
-57.0376
 20
-141.847
 11
-57.1258
 21
-141.745
  0
LINE
  8
0
 10
-57.1258
 20
-141.745
 11
-57.2088
 21
-141.638
  0
LINE
  8
0
 10
-57.2088
 20
-141.638
 11
-57.2865
 21
-141.528
  0
LINE
  8
0
 10
-57.2865
 20
-141.528
 11
-57.3587
 21
-141.414
  0
LINE
  8
0
 10
-57.3587
 20
-141.414
 11
-57.4253
 21
-141.296
  0
LINE
  8
0
 10
-57.4253
 20
-141.296
 11
-57.486
 21
-141.176
  0
LINE
  8
0
 10
-57.486
 20
-141.176
 11
-57.5407
 21
-141.052
  0
LINE
  8
0
 10
-57.5407
 20
-141.052
 11
-57.5892
 21
-140.926
  0
LINE
  8
0
 10
-57.5892
 20
-140.926
 11
-57.6316
 21
-140.798
  0
LINE
  8
0
 10
-57.6316
 20
-140.798
 11
-57.6676
 21
-140.668
  0
LINE
  8
0
 10
-57.6676
 20
-140.668
 11
-57.6972
 21
-140.536
  0
LINE
  8
0
 10
-57.6972
 20
-140.536
 11
-57.7202
 21
-140.404
  0
LINE
  8
0
 10
-57.7202
 20
-140.404
 11
-57.7368
 21
-140.27
  0
LINE
  8
0
 10
-57.7368
 20
-140.27
 11
-57.7467
 21
-140.135
  0
LINE
  8
0
 10
-57.7467
 20
-140.135
 11
-57.75
 21
-140
  0
LINE
  8
0
 10
-57.75
 20
-140
 11
-57.7467
 21
-139.865
  0
LINE
  8
0
 10
-57.7467
 20
-139.865
 11
-57.7368
 21
-139.73
  0
LINE
  8
0
 10
-57.7368
 20
-139.73
 11
-57.7202
 21
-139.596
  0
LINE
  8
0
 10
-57.7202
 20
-139.596
 11
-57.6972
 21
-139.464
  0
LINE
  8
0
 10
-57.6972
 20
-139.464
 11
-57.6676
 21
-139.332
  0
LINE
  8
0
 10
-57.6676
 20
-139.332
 11
-57.6316
 21
-139.202
  0
LINE
  8
0
 10
-57.6316
 20
-139.202
 11
-57.5892
 21
-139.074
  0
LINE
  8
0
 10
-57.5892
 20
-139.074
 11
-57.5407
 21
-138.948
  0
LINE
  8
0
 10
-57.5407
 20
-138.948
 11
-57.486
 21
-138.824
  0
LINE
  8
0
 10
-57.486
 20
-138.824
 11
-57.4253
 21
-138.704
  0
LINE
  8
0
 10
-57.4253
 20
-138.704
 11
-57.3587
 21
-138.586
  0
LINE
  8
0
 10
-57.3587
 20
-138.586
 11
-57.2865
 21
-138.472
  0
LINE
  8
0
 10
-57.2865
 20
-138.472
 11
-57.2088
 21
-138.362
  0
LINE
  8
0
 10
-57.2088
 20
-138.362
 11
-57.1258
 21
-138.255
  0
LINE
  8
0
 10
-57.1258
 20
-138.255
 11
-57.0376
 21
-138.153
  0
LINE
  8
0
 10
-57.0376
 20
-138.153
 11
-56.9445
 21
-138.055
  0
LINE
  8
0
 10
-56.9445
 20
-138.055
 11
-56.8468
 21
-137.962
  0
LINE
  8
0
 10
-56.8468
 20
-137.962
 11
-56.7446
 21
-137.874
  0
LINE
  8
0
 10
-56.7446
 20
-137.874
 11
-56.6382
 21
-137.791
  0
LINE
  8
0
 10
-56.6382
 20
-137.791
 11
-56.5278
 21
-137.713
  0
LINE
  8
0
 10
-56.5278
 20
-137.713
 11
-56.4138
 21
-137.641
  0
LINE
  8
0
 10
-56.4138
 20
-137.641
 11
-56.2963
 21
-137.575
  0
LINE
  8
0
 10
-56.2963
 20
-137.575
 11
-56.1758
 21
-137.514
  0
LINE
  8
0
 10
-56.1758
 20
-137.514
 11
-56.0524
 21
-137.459
  0
LINE
  8
0
 10
-56.0524
 20
-137.459
 11
-55.9264
 21
-137.411
  0
LINE
  8
0
 10
-55.9264
 20
-137.411
 11
-55.7983
 21
-137.368
  0
LINE
  8
0
 10
-55.7983
 20
-137.368
 11
-55.6682
 21
-137.332
  0
LINE
  8
0
 10
-55.6682
 20
-137.332
 11
-55.5365
 21
-137.303
  0
LINE
  8
0
 10
-55.5365
 20
-137.303
 11
-55.4035
 21
-137.28
  0
LINE
  8
0
 10
-55.4035
 20
-137.28
 11
-55.2695
 21
-137.263
  0
LINE
  8
0
 10
-55.2695
 20
-137.263
 11
-55.1349
 21
-137.253
  0
LINE
  8
0
 10
-55.1349
 20
-137.253
 11
-55
 21
-137.25
  0
LINE
  8
0
 10
-55
 20
-137.25
 11
-54.8651
 21
-137.253
  0
LINE
  8
0
 10
-54.8651
 20
-137.253
 11
-54.7305
 21
-137.263
  0
LINE
  8
0
 10
-54.7305
 20
-137.263
 11
-54.5965
 21
-137.28
  0
LINE
  8
0
 10
-54.5965
 20
-137.28
 11
-54.4635
 21
-137.303
  0
LINE
  8
0
 10
-54.4635
 20
-137.303
 11
-54.3318
 21
-137.332
  0
LINE
  8
0
 10
-54.3318
 20
-137.332
 11
-54.2017
 21
-137.368
  0
LINE
  8
0
 10
-54.2017
 20
-137.368
 11
-54.0735
 21
-137.411
  0
LINE
  8
0
 10
-54.0735
 20
-137.411
 11
-53.9476
 21
-137.459
  0
LINE
  8
0
 10
-53.9476
 20
-137.459
 11
-53.8242
 21
-137.514
  0
LINE
  8
0
 10
-53.8242
 20
-137.514
 11
-53.7037
 21
-137.575
  0
LINE
  8
0
 10
-53.7037
 20
-137.575
 11
-53.5862
 21
-137.641
  0
LINE
  8
0
 10
-53.5862
 20
-137.641
 11
-53.4722
 21
-137.713
  0
LINE
  8
0
 10
-53.4722
 20
-137.713
 11
-53.3618
 21
-137.791
  0
LINE
  8
0
 10
-53.3618
 20
-137.791
 11
-53.2554
 21
-137.874
  0
LINE
  8
0
 10
-53.2554
 20
-137.874
 11
-53.1532
 21
-137.962
  0
LINE
  8
0
 10
-53.1532
 20
-137.962
 11
-53.0555
 21
-138.055
  0
LINE
  8
0
 10
-53.0555
 20
-138.055
 11
-52.9624
 21
-138.153
  0
LINE
  8
0
 10
-52.9624
 20
-138.153
 11
-52.8742
 21
-138.255
  0
LINE
  8
0
 10
-52.8742
 20
-138.255
 11
-52.7912
 21
-138.362
  0
LINE
  8
0
 10
-52.7912
 20
-138.362
 11
-52.7135
 21
-138.472
  0
LINE
  8
0
 10
-52.7135
 20
-138.472
 11
-52.6412
 21
-138.586
  0
LINE
  8
0
 10
-52.6412
 20
-138.586
 11
-52.5747
 21
-138.704
  0
LINE
  8
0
 10
-52.5747
 20
-138.704
 11
-52.514
 21
-138.824
  0
LINE
  8
0
 10
-52.514
 20
-138.824
 11
-52.4593
 21
-138.948
  0
LINE
  8
0
 10
-52.4593
 20
-138.948
 11
-52.4108
 21
-139.074
  0
LINE
  8
0
 10
-52.4108
 20
-139.074
 11
-52.3684
 21
-139.202
  0
LINE
  8
0
 10
-52.3684
 20
-139.202
 11
-52.3324
 21
-139.332
  0
LINE
  8
0
 10
-52.3324
 20
-139.332
 11
-52.3028
 21
-139.464
  0
LINE
  8
0
 10
-52.3028
 20
-139.464
 11
-52.2798
 21
-139.596
  0
LINE
  8
0
 10
-52.2798
 20
-139.596
 11
-52.2632
 21
-139.73
  0
LINE
  8
0
 10
-52.2632
 20
-139.73
 11
-52.2533
 21
-139.865
  0
LINE
  8
0
 10
-52.2533
 20
-139.865
 11
-52.25
 21
-140
  0
LINE
  8
0
 10
-52.25
 20
-140
 11
-52.2533
 21
-140.135
  0
LINE
  8
0
 10
-52.2533
 20
-140.135
 11
-52.2632
 21
-140.27
  0
LINE
  8
0
 10
-52.2632
 20
-140.27
 11
-52.2798
 21
-140.404
  0
LINE
  8
0
 10
-52.2798
 20
-140.404
 11
-52.3028
 21
-140.536
  0
LINE
  8
0
 10
-52.3028
 20
-140.536
 11
-52.3324
 21
-140.668
  0
LINE
  8
0
 10
-52.3324
 20
-140.668
 11
-52.3684
 21
-140.798
  0
LINE
  8
0
 10
-52.3684
 20
-140.798
 11
-52.4108
 21
-140.926
  0
LINE
  8
0
 10
-52.4108
 20
-140.926
 11
-52.4593
 21
-141.052
  0
LINE
  8
0
 10
-52.4593
 20
-141.052
 11
-52.514
 21
-141.176
  0
LINE
  8
0
 10
-52.514
 20
-141.176
 11
-52.5747
 21
-141.296
  0
LINE
  8
0
 10
-52.5747
 20
-141.296
 11
-52.6412
 21
-141.414
  0
LINE
  8
0
 10
-52.6412
 20
-141.414
 11
-52.7135
 21
-141.528
  0
LINE
  8
0
 10
-52.7135
 20
-141.528
 11
-52.7912
 21
-141.638
  0
LINE
  8
0
 10
-52.7912
 20
-141.638
 11
-52.8742
 21
-141.745
  0
LINE
  8
0
 10
-52.8742
 20
-141.745
 11
-52.9624
 21
-141.847
  0
LINE
  8
0
 10
-52.9624
 20
-141.847
 11
-53.0555
 21
-141.945
  0
LINE
  8
0
 10
-53.0555
 20
-141.945
 11
-53.1532
 21
-142.038
  0
LINE
  8
0
 10
-53.1532
 20
-142.038
 11
-53.2554
 21
-142.126
  0
LINE
  8
0
 10
-53.2554
 20
-142.126
 11
-53.3618
 21
-142.209
  0
LINE
  8
0
 10
-53.3618
 20
-142.209
 11
-53.4722
 21
-142.287
  0
LINE
  8
0
 10
-53.4722
 20
-142.287
 11
-53.5862
 21
-142.359
  0
LINE
  8
0
 10
-53.5862
 20
-142.359
 11
-53.7037
 21
-142.425
  0
LINE
  8
0
 10
-53.7037
 20
-142.425
 11
-53.8242
 21
-142.486
  0
LINE
  8
0
 10
-53.8242
 20
-142.486
 11
-53.9476
 21
-142.541
  0
LINE
  8
0
 10
-53.9476
 20
-142.541
 11
-54.0735
 21
-142.589
  0
LINE
  8
0
 10
-54.0735
 20
-142.589
 11
-54.2017
 21
-142.632
  0
LINE
  8
0
 10
-54.2017
 20
-142.632
 11
-54.3318
 21
-142.668
  0
LINE
  8
0
 10
-54.3318
 20
-142.668
 11
-54.4635
 21
-142.697
  0
LINE
  8
0
 10
-54.4635
 20
-142.697
 11
-54.5965
 21
-142.72
  0
LINE
  8
0
 10
-54.5965
 20
-142.72
 11
-54.7305
 21
-142.737
  0
LINE
  8
0
 10
-54.7305
 20
-142.737
 11
-54.8651
 21
-142.747
  0
LINE
  8
0
 10
-54.8651
 20
-142.747
 11
-55
 21
-142.75
  0
LINE
  8
0
 10
-55
 20
-142.75
 11
-55.1349
 21
-142.747
  0
LINE
  8
0
 10
-55.1349
 20
-142.747
 11
-55.2695
 21
-142.737
  0
LINE
  8
0
 10
-55.2695
 20
-142.737
 11
-55.4035
 21
-142.72
  0
LINE
  8
0
 10
-55.4035
 20
-142.72
 11
-55.5365
 21
-142.697
  0
LINE
  8
0
 10
-55.5365
 20
-142.697
 11
-55.6682
 21
-142.668
  0
LINE
  8
0
 10
-55.6682
 20
-142.668
 11
-55.7983
 21
-142.632
  0
ENDSEC
  0
SECTION
  2
OBJECTS
  0
DICTIONARY
  0
ENDSEC
  0
EOF
